Artist: Fear Factory
Song: Linchpin
Tabbed by: Ratmer ([email protected])
7-string guitar (of course) tuned down 1 whole step
INTRO
D|-------------------------------------------------
A|-------------------------------------------------
F|-------------------------------------------------
C|-------------------------------------------------
G|-------------------------------------------------
D|-------------------------------------------------
A|--1-p0-1-p0-1-p0-1-p0-1-p0-1-p0-1-p0-1-----------
D|------------------------------------
A|------------------------------------
F|------------------------------------
C|------------------------------------
G|--2-3-3-3--2-3-3-3------------------
D|--2-3-3-3--2-3-3-3------------------
A|--0-1-1-1--0-1-1-1--------play twice
VERSE
D|-----------------------------------
A|-----------------------------------
F|-----------------------------------
C|-----------------------------------
G|--3-3-3-3-3-3-3--------------------
D|--3-3-3-3-3-3-3--------------------
A|--1-1-1-1-1-1-1-----tremolo picking
BRIDGE
D|--------------------------------------------------------------
A|--------------------------------------------------------------
F|--------------------------------------------------------------
C|--------------------------------------------------------------
G|--2-3-3-3--2-3-3-3--2-3-3-3--3-3-3-3-3-3-3-3------------------
D|--2-3-3-3--2-3-3-3--2-3-3-3--3-3-3-3-3-3-3-3------------------
A|--0-1-1-1--0-1-1-1--0-1-1-1--1-1-1-1-1-1-1-1---tremolo picking
(can t take me apart...)
CHORUS
D|------------------------------------------------------------
A|------------------------------------------------------------
F|------------------------------------------------------------
C|--7-7-7-7-7--9--5-5-x-4-4--7-7-7-7-7--9--------------5------
G|--7-7-7-7-7--9--5-5-x-5-5--7-7-7-7-7--9--3-3-x--5-x--5------
D|--5-5-5-5-5--7--3-3-x-2-2--5-5-5-5-5--7--3-3-x--5-x--3------
A|-----------------------------------------1-1-x--3-x---------
D|------------------------------------------------------------
A|------------------------------------------------------------
F|------------------------------4-----------------------------
C|-----9--5---------------9--------5--------------------------
G|--------------------10--------------------------------------
D|--5--------5-/-7-8---------3--------------------------------
A|-------------------------------------------play 4 times then
D|------------------------------------------------------------
A|------------------------------------------------------------
F|------------------------------------------------------------
C|-----9--5---------------------------------------------------
G|------------------6--5--3--6--5--3--------------------------
D|--5--------5-/-7-----------6--5--3--------------------------
A|---------------------------4--3--1--------------------------
INTERLUDE
D|----------------------------------------------------------
A|----------------------------------------------------------
F|----------------------------------------------------------
C|----------------------------------------------------------
G|--3--5--6--5----------------------------------------------
D|--3--5--6--5----------------------------------------------
A|--1--3--4--3---play 4 times, 5th time with tremolo picking
FINAL CHORUS (PLAY REGULAR CHORUS + SPECIAL ENDING)
D|----------------------------------------------------------
A|----------------------------------------------------------
F|----------------------------------------------------------
C|-----9--5--------------------7-7-7-7-7-7-7--5-5-5-5-5-5---
G|-----------------------------7-7-7-7-7-7-7--5-5-5-5-5-5---
D|--5--------5-/-7--8--10--8---5-5-5-5-5-5-5--3-3-3-3-3-3---
A|----------------------------------------------------------
END
D|------------------------------------------------------
A|------------------------------------------------------
F|------------------------------------------------------
C|------------------------------------------------------
G|--6--5--5-5---6--5--5-5--6--5--3----------------------
D|--------5-5---------5-5--6--5--3----------------------
A|--------3-3---------3-3--4--3--1----------let it ring!
ORDER:
INTRO
VERSE
BRIDGE
CHORUS
INTRO
VERSE
BRIDGE
CHORUS
INTERLUDE
FINAL CHORUS
END
Dino uses distortion & the ibanez CF7 effects pedal. have fun sucka!




Ваше мнение



Капча