Band: Fear Factory
Song: Invisible Wounds (Dark Bodies)
Album: DIGIMORTAL
Tabbed on: 05/26/2001
Gtr. is tuned down three and a half steps: (A D G C E A)
(But if your guitar is like mine, and your intonation
goes all to hell when you tune that low, then only tune
one whole step down (D G C F A D) and play all this stuff
five frets lower than written)
These are all the riffs. Song structure is below.
Intro riff:
A|-------------------------------|-------------------------------|
E|-------------------------------|-------------------------------|
C|-------------------------------|-------------------------------|
G|-------10---10---10---10h12-12-|-------10---10---10---10-12-12-|
D|-------------------------------|-------------------------------|
A|-8-8-8----8----8----8----------|-6-6-6----6----6----6----------|
A|-------------------------------|-------------------------------||
E|-------------------------------|-------------------------------||
C|-------------------------------|-------------------------------||
G|----------13---13---13---------|----------13---17---13---17-13-||
D|-------------------------------|-------------------------------||
A|-11-11-11---11---11----11-10-11|-13-13-13---13---13---13-------||
Chorus:
A|-----------------------------------|---------------------------|
E|-----------------------------------|---------------------------|
C|-----------------------------------|---------------------------|
G|10-10-10-10-10-10-10-10-10/12-12-12|8-8-8-8-8-8-8-8-8/12-12-12-|
D|10-10-10-10-10-10-10-10-10/12-12-12|8-8-8-8-8-8-8-8-8/10-10-10-|
A|-8--8--8--8--8--8--8--8--8/10-10-10|6-6-6-6-6-6-6-6-6/10-10-10-|
> > > > > > > > > >
A|--------------------------------|
E|--------------------------------|
C|--------------------------------|
G|13-13-13-13-13-13-13-13-13-12-13|
D|13-13-13-13-13-13-13-13-13-12-13|
A|11-11-11-11-11-11-11-11-11-10-11|
> > > > >
A|-----------------------------------------------||
E|-----------------------------------------------||
C|-----------------------------------------------||
G|15-15-15-15-15-15-15-15-15-15-15-15-15-15-15-15||
D|15-15-15-15-15-15-15-15-15-15-15-15-15-15-15-15||
A|13-13-13-13-13-13-13-13-13-13-13-13-13-13-13-13||
> > > >
Riff A:
A|----------------------------|-------------------------|
E|----------------------10----|-------------------10----|
C|-------10---10---10------10-|-------10--10--10-----10-|
G|----------------------------|-------------------------|
D|----------------------------|-------------------------|
A|-8-8-8----8----8----8-------|-6-6-6---6---6---6-------|
A|------------------------------|-----------------------||
E|------------------------------|-----------------------||
C|------------------------------|-----------------------||
G|---------13---13---13---------|-----------------------||
D|------------------------------|-----------------------||
A|11-11-11---11---11---11-10-11-|-13--------------------||
Riff B:
A|------|-------|---------------------------|-------------------------||
E|------|-------|---------------------------|-------------------------||
C|------|-------|---------------------------|-------------------------||
G|------|-------|--------13--13--13---------|--------13--17--13--17-13||
D|------|-------|---------------------------|-------------------------||
A|------|-------|11-11-11--11--11---11-10-11|13-13-13--13--13--13-----||
(two bar rest)
Alternate chorus:
A|-----------------------------------|---------------------------|
E|-----------------------------------|---------------------------|
C|-----------------------------------|---------------------------|
G|10-10-10-10-10-10-10-10-10-10/12-12|-8-8-8-8-8-8-8-8-8-8/12-12-|
D|10-10-10-10-10-10-10-10-10-10/12-12|-8-8-8-8-8-8-8-8-8-8/10-10-|
A|-8--8--8--8--8--8--8--8--8--8/10-10|-6-6-6-6-6-6-6-6-6-6/10-10-|
* * * * * * * * * * * *
A|-----------------------------------|
E|-----------------------------------|
C|-----------------------------------|
G|13-13-13-13-13-13-13-13-13-13-12-13|
D|13-13-13-13-13-13-13-13-13-13-12-13|
A|11-11-11-11-11-11-11-11-11-11-10-11|
* * * * * *
A|-----------------------------------------------||
E|-----------------------------------------------||
C|-----------------------------------------------||
G|15-15-15-15-15-15-15-15-15-15-15-15-15-15-15-15||
D|15-15-15-15-15-15-15-15-15-15-15-15-15-15-15-15||
A|13-13-13-13-13-13-13-13-13-13-13-13-13-13-13-13||
> > > >
Riff C (double time, in 3/4):
play 4 times
A|-------------------|------------------|------------------|
E|.------------------|------------------|------------------|
C|-------------------|------------------|------------------|
G|-13-12-12-12-12-12-|13-12-12-12-12-12-|13-12-12-12-12-12-|
D|.13-12-12-12-12-12-|13-12-12-12-12-12-|13-12-12-12-12-12-|
A|-11-10-10-10-10-10-|11-10-10-10-10-10-|11-10-10-10-10-10-|
* * * * * * * * * * * *
1,3,4._______________________________ 2.________
A|-------------------------------------|----------||
E|------------------------------------.|---------.||
C|-------------------------------------|----------||
G|12-13-13-13-13-13-13-13-13-13-13-13--|----------||
D|12-13-13-13-13-13-13-13-13-13-13-13-.|---------.||
A|10-11-11-11-11-11-11-11-11-11-11-11--|----------||
* * * * * * * * * * * * (bar rest)
Riff D (normal time, back in 4/4):
A|---------------------------|---------------------------|
E|---------------------------|---------------------------|
C|---------------------------|---------------------------|
G|-------10---10---8---12----|-------10---10---8---12----|
D|---------------------------|---------------------------|
A|-8-8-8----8----8---8-------|-6-6-6----6----6---6-------|
A|-------------------------------|-------------------------------||
E|-------------------------------|-------------------------------||
C|-------------------------------|-------------------------------||
G|----------13----12----13----12-|----------13----12----13----12-||
D|-------------------------------|-------------------------------||
A|-11-11-11----11----11----11----|-13-13-13----13----13----13----||
Riff E:
A|--------------------------|---------------------------|
E|--------------------------|---------------------------|
C|-------10---10---10---10--|-------10---10---10---10---|
G|--------------------------|---------------------------|
D|--------------------------|---------------------------|
A|-8-8-8----8----8----8-----|-6-6-6----6----6----6------|

A|--------------------------------|--------------------|----------||
E|--------------------------------|--------------------|----------||
C|----------10----10----10----10--|--------------------|----------||
G|--------------------------------|--------------------|----------||
D|--------------------------------|--------------------|----------||
A|-11-11-11----11----11----11-----|-13-----------------|----------||
(bar rest)
Structure:
Intro riff
Chorus
Intro riff
Riff A
Chorus X2
Riff B
Riff A
Chorus
Alternate chorus (but last bar TACET)
Riff C
Riff D
Riff E
Alternate chorus
Chorus (w/ Riff D)
Alternate chorus X2 (but last time, last bar: hit chord once and STOP)
(ends w/ reverse recording of intro riff)




Ваше мнение



Капча