Band:Fear Factory
Song:Invisible Wounds E---------|
Album:Digimortal B---------|
TUNNING G---------|
Tabbed By : Tr-amp D---------|
A---------|
D---------|

Yeah I know its in drop C# but I’ve done it for drop D...and it works fine.
(and is much easier if you don’t have several guitars!!)
Thanks to Jono Dallas for his tab which set me on the way!
INTRO : clean
-------------------------------------------------------
-------------------------------------------------------
-------------------------------------------------------
----------3---3---3----3/5--------3---3---3----3/5-----
-------------------------------------------------------
---3-33----3---3---3--------1-11---3---3---3-----------
-------------------------------------------------------
-------------------------------------------------------
--------------------------------------5-------5--------
--------6---6---6----------------6--------6------------
------------------------------------------------------
---6-66---6--6----6-5-6-8-88------8----8---8---8-------
HEAVY PART : distortion
-------------------------------------------------------
-------------------------------------------------------
-------------------------------------------------------
---3--333--33--33--355--1--111--11--11--155------------
---3--333--33--33--355--1--111--11--11--155------------
---3--333--33--33--355--1--111--11--11--155------------
-------------------------------------------------------
-------------------------------------------------------
-------------------------------------------------------
6--666--66--66--6566-8888888888888888888888888888------
6--666--66--66--6566-8888888888888888888888888888------
6--666--66--66--6566-8888888888888888888888888888------
VERSE 1 : clean
-------------------------------------------------------
-------------------------------------------------------
-------------------------------------------------------
----3----3----3----3--3/5-------3----3----3----3--3/5--
-------------------------------------------------------
--3---------------------------1------------------------
-------------------------------------------------------
-------------------------------------------------------
-------------------------------5-----5-----------------
-----6---6---6--------------6-----6-----6--------------
-------------------------------------------------------
--6-------------6-5-6-8--------------------------------
-------------------------------------------------------
-----------3-----------------3-------------------------
---3-3-3------3-----3-3-3----3------1--1--1------------
------------------------------------6--6--6------------
-------------------------------------------------------
-3---------------1------------------6--------6-5-68-hold
CHORUS : X 2
-------------------------------------------------------
-------------------------------------------------------
-------------------------------------------------------
--3--333--33--33--355-1--111--11--11--355--------------
--3--333--33--33--355-1--111--11--11--355--------------
--3--333--33--33--355-1--111--11--11--355--------------
-------------------------------------------------------
-------------------------------------------------------
-------------------------------------------------------
6--666--66--66--6566-8888888888888888888888888888------
6--666--66--66--6566-8888888888888888888888888888------
6--666--66--66--6566-8888888888888888888888888888------
VERSE 2 Bass first then:
-------------------------------------------------------
-------------------------------------------------------
---------------------------------5------5--------------
-----6---6---6---------------6-------6------6----------
-------------------------------------------------------
-6--------------6-5-6-8--------------------------------
-------------------------------------------------------
--------------3---------------3------------------------
---3-3-3-------3-----3-3-3-----3-----------------------
--------------------------------------6--6--6----------
-------------------------------------------------------
-3----------------1---------------6-----------6-5-6-8-hold
CHORUS
-------------------------------------------------------
-------------------------------------------------------
-------------------------------------------------------
--3--333--33--33--355-1--111--11--11--155--------------
--3--333--33--33--355-1--111--11--11--155--------------
--3--333--33--33--355-1--111--11--11--155--------------
-------------------------------------------------------
-------------------------------------------------------
-------------------------------------------------------
6--666--66--66--6566-8888888888888888888888888888------
6--666--66--66--6566-8888888888888888888888888888------
6--666--66--66--6566-8888888888888888888888888888------
Bridge
-----------------------------------------------------------
-----------------------------------------------------------
-----------------------------------------------------------
-88---88---88---88---88----6---333---6---333---6-3-6-3-6-3-ґ4
-88---88---88---88---88----6---333---6---333---6-3-6-3-6-3-
-88---88---88---88---88----6---333---6---333---6—3-6-3-6-3-
Clean
---------------------------------------------------------
---------------------------------------------------------
---------------------------------------------------------
----3--3--1--5-------3--3--1--5---------6-5--6-5--6------
---------------------------------------------------------
3----------------1------------------6--------------------
--------------------
--------------------
-----1-0--1-0--1----
--------------------
--1-----------------
--------------------
---------------------------------------------------------
---------------------------------------------------------
----3--3--3--5-----3--3--3--3----------------------------
------------------------------------8--8--8--8-----------
---------------------------------------------------------
-3---------------1---------------6----------------8-hold-
CHORUS : X 2
---------------------------------------------------------
---------------------------------------------------------
---------------------------------------------------------
-3--333--33--33--355-1--111--11--11--155-----------------
-3--333--33--33--355-1--111--11--11--155-----------------
-3--333--33--33--355-1--111--11--11--155-----------------
PM -- - - -- - -
---------------------------------------------------------
---------------------------------------------------------
---------------------------------------------------------
-6--666--66--66-6566-8888888888888888888888888888--------
-6--666--66--66-6566-8888888888888888888888888888--------
-6--666--66--66-6565-8888888888888888888888888888--------
PM -- - - -

-----------------------------------------------------------
-----------------------------------------------------------
-----------------------------------------------------------
-3-xx-3-xx-3-xx-3/5--1-xx-1-xx-1-xx-1/5--6-xx-6-xx-6-xx-6/5
-3-xx-3-xx-3-xx-3/5--1-xx-1-xx-1-xx-1/5--6-xx-6-xx-6-xx-6/5
-3-xx-3-xx-3-xx-3/5--1-xx-1-xx-1-xx-1/5--6-xx-6-xx-6-xx-6/5
--------------------------------------------------------
--------------------------------------------------------
--------------------------------------------------------
---/8888888888888888888888888888------------------------
---/8888888888888888888888888888------------------------
---/8888888888888888888888888888------------------------
PM the mutes on 5th, then 3rd then 8th fret
-----------------------------------------------------------
-----------------------------------------------------------
-----------------------------------------------------------
-3-xx-3-xx-3-xx-3/5--1-xx-1-xx-1-xx-1/5--6-xx-6-xx-6-xx-6/5
-3-xx-3-xx-3-xx-3/5--1-xx-1-xx-1-xx-1/5--6-xx-6-xx-6-xx-6/5
-3-xx-3-xx-3-xx-3/5--1-xx-1-xx-1-xx-1/5--6-xx-6-xx-6-xx-6/5
---------------------------------------------------------
---------------------------------------------------------
---------------------------------------------------------
--6-0----------------------------------------------------
--6-0----------------------------------------------------
--6------------------------------------------------------
Just Listen to the record, and it soon comes easy!!




Ваше мнение



Капча