Artist: Fear Factory
Title: Hunter-Killer
Album: Demanufacture
Transcribed by: Brian Van Maurik ([email protected])

7 String Guitar Or Six String tuned down 2 1/2 steps
(B,E,A,D,G,B)

Prepare for a workout!!! This song is fast as hell.
Listen closely for the rhythm and palm muting.
Listen real close to the chorus to see just how fast
you need to tremolo pick. And those are tens in the
chorus, not ones and zeroes!
Good luck!!!

-|----------------------------------|--------------------------------------|--
-|----------------------------------|--------------------------------------|--
-|----------------------------------|--------------------------------------|--
-|----------------------------------|--------------------------------------|--
-|----------------------------------|--------------------------------------|--
-|-22242--22242--22242--24442-24442-|-22242-4--22242-2-22242-4-24442-24442-|--
intro play 2x play 2x

-|----------|------|----------|--------------|----------|-------------|-------
-|----------|------|----------|--------------|----------|-------------|-------
-|----------|------|----------|--------------|----------|-------------|-------
-|----------|------|----------|--------------|----------|-------------|-------
-|----------|------|----------|---------64--|----------|-------------|-------
-|-22242-24-|------|-22242-24-|-22242-2-42--|-22242-24-|--24442-2442-|-------
play 7x rest 1st verse play 2x

-|----------------|-------------|-----------------------------|---------------
-|----------------|-------------|-----------------------------|---------------
-|----------------|-------------|-----------------------------|---------------
-|----------------|-------------|----7-6-4---7-6--------------|---------------
-|-------4/6-64--|-------------|--6-5-4-2-6-5-4--------------|---------------
-|-22242-2/4-42--|-24442-24442-|--4-------4------24442-24442-|---------------
2nd verse despise...

-|----------------|-------------|------------------------------------------|--
-|----------------|-------------|------------------------------------------|--
-|----------------|-------------|------------------------------------------|--
-|----------------|-------------|------------------------------------------|--
-|-------4/6-64--|-------------|------------------------------------------|--
-|-22242-2/4-42--|-24442-24442-|--444444444101010101010109999999977777777-|--
pre-chorus chorus tremolo pick!!!! I am a criminal!

-|------------------------|----------------------|------------------------|---
-|------------------------|----------------------|------------------------|---
-|------------------------|----------------------|------------------------|---
-|------------------------|----------------------|------------------------|---
-|------------------------|----------------4-----|------------------------|---
-|-2334-2334-2334-2444444-|-2334-2334-2334-2-----|-2334-2334-2334-2444444-|---
interlude rest

------------------------|-----------------------|-------------------------|---
------------------------|-----------------------|-------------------------|---
------------------------|-----------------------|-------------------------|---
------------------------|-----------------------|-------------------------|---
----------------4/6-64-|-----------------------|----------------4/6-64--|---
-2334-2334-2334-2/4-42-|-2334-2334-2334-244444-|-2334-2334-2334-2/4-42--|---
i must steal to survive...

----------------------------------|----------------------------|------------|-
----------------------------------|----------------------------|------------|-
----------------------------------|----------------------------|------------|-
----------------------------------|----------------------------|------------|-
---------------------------6------|------------------------4---|-6----------|-
-2334-2334-2334-2444444444-4------|-2222222222222222222222-2---|-4----------|-
in fury....... rest the machine is now alive let ring...

-|------------------------------------------------|----------------|----------
-|------------------------------------------------|----------------|----------
-|------------------------------------------------|----------------|----------
-|------------------------------------------------|----------------|----------
-|------------------------------------------------|-------4/6-64--|----------
-|-22242-22242-22242-22242-22242-22242-24443-2443-|-22242-2/4-42--|-24443----
play a few times

------|------------|--------|-------------|----------|------------------------
------|------------|--------|-------------|----------|------------------------
------|------------|--------|-------------|----------|------------------------
------|------------|--------|-------------|----------|------------------------
------|------------|--------|-------------|----------|------------------------
-2443-|------------|--------|-22-44-22-44-|-24444444-|-2334-2334-2334---------
pre-chorus chorus slower part criminal!!!!!!!

---------|------------------------|----------------|---------------------|----
---------|------------------------|----------------|---------------------|----
---------|------------------------|----------------|---------------------|----
---------|------------------------|----------------|---------------------|----
---------|----------------4/6-64-|-----------4----|-----------2-4/6-64-|----
-2444444-|-2334-2334-2334-2/4-42-|-2334-2334-2----|-2334-2334-0-2/4-42-|----
hold

--------------------|------|--------------------------------------------------
--------------------|------|--------------------------------------------------
--------------------|------|--------------------------------------------------
--------------------|------|--------------------------------------------------
--------------------|------|--------------------------------------------------
--------------------|-2242-|--------------------------------------------------
chorus 1 1/2 times end We're against the machines....(onto Pisschrist)




Ваше мнение



Капча