song:Escape Confusion (intro)
artist:Fear Factory
transcribed by Brian Van Maurik ([email protected])

Tune all strings down a perfect fourth (B, E, A, D, F#, B)

B|----------------|
F#|----------------|
D|----------------|
A|---6-----6--5---|
E|------7---------|
B|----------------|

The riff is rather simple. the first few times, use a clean sound with as much reverb
as you can possibly get from your amp. After a few times, hit the distortion and let the
second 6 on the A string ring- listen to see what I'm babbling about. Let me know if it
kicks ass or sucks or if you figure anything else out.

next part...
B|-------------|
F#|-------------|
D|-------------|
A|-------------|
E|-6--2--6--5--|
B|-4--0--4--3--|
ah... escape...


Ваше мнение



Капча