Song: Edgecrusher
Band: Fear Factory
From: Obsolete
Date: 8/ 9/ 99
Tabbed by: Mike K
7 string arranged for 6 string
Tune Low E to A
Tune A to D
Tune D to G
Tune G to F
Tune B to A
Tune High E to D
Intro and Chorus
------------------------------------------------------------------
------------------------------------------------------------------
------------------------------------------------------------------
-------2-----------2----------2---------------------------------
---3---2-2-2-3---2-2-2-3---2-2-2-3--4-3-2--------------
---1---0-0-0-1---0-0-0-1---0-0-0-1--2-1-0--------------
Verse (Bass)
-----------------------------------------------------------------
-----------------------------------------------------------------
----------------------6-----------------------------------------
--0----7-------5--------2---1--------------------------------
Pre-Chorus
------------------------------------------------------------------
------------------------------------------------------------------
------------------------------------------------------------------
-----------------------------------------7----7---7-------------
---2--2---8---8--8---8---8---6--6---5----5---5---4---3--
---0--0---6---6--6---6---6---4--4------------------2--1---
Intrelude
-----------------------------------------------------------------
-----------------------------------------------------------------
-----------------------------------------------------------------
-------------------------repeat several times-----------
--2---2----2---2---------------------------------------------
--0---0----0---0---------------------------------------------
------------------------------------------------------------------------
------------------------------------------------------------------------
------------------------------------------------------------------------
--5-------------------4------------------------------------------------
--3--6---7---0--3---2---2--6--7--2--3--2---8--6--7--2--3--2
-----4---5---2---5--0---0--4---5--0--1--0---6-4--5--0---1--0




Ваше мнение



Капча