From [email protected] Thu May 15 16:58:37 1997
Date: Thu, 01 May 1997 15:46:47 EDT
From: [email protected]
To: [email protected]
Subject: Dog Day Sunrise by Fear Factory
Song: Dog Day Sunrise
Performer: Fear Factory
Album: Demanufacture
Tabbed by the jellyman ([email protected]), so don't blame me for
errors.
Tune your guitar down 2 1/2 steps (low to high-B E A D Gb B)
Riff 1
------
1 |----------------------------------|----------------------------------|
2 |----------------------------------|----------------------------------|
3 |----------------------------------|----------------------------------|
4 |-------------7--------------------|-------------5--------------------|
5 |----------------------------------|----------------------------------|
6 |-5-----------------------5--------|-3-----------------------3--------|
Riff 2
------
1 |----------------------------------|
2 |----------------------------------|
3 |----------------------------------|
4 |---------------------4~~~---------|
5 |----------------------------------|
6 |-2-------2---0---2----------------|
Fill 1
------
1 |----------------------------------|
2 |----------------------------------|
3 |----------------------------------|
4 |----------------------------------|
5 |----------------------------------|
6 |-3~~~-----------------------------|
play Riff 1 4 times
play Riff 2 28 times
play Riff 1 4 times
play Riff 2 12 times
play Riff 1 4 times
play Riff 1 8 times w/choppy echoes
play Riff 1 4 times
play Riff 2 8 times
play Riff 1 4 times
play Riff 2 28 times
play Riff 1 7.5 times w/choppy echoes
play Fill 1 once and fade
Lyrics (* = w/echo)
-------------------
Dog day sunrise
Every day of my life
I'm working on a scheme
Working overtime underground
Girls work under floors
The failures tend the moors
But once the seam is cut
They find out what is learned
Dog day sunrise *
Dog day sunrise *
Dog day sunrise *
Dog day sunrise *
Drag your feet through hollow streets
Drag your feet through hollow streets
Drag your feet through hollow streets
Drag your feet through hollow streets
Dog day sunrise *
Dog day sunrise *
Dog day sunrise *
Dog day sunrise *
Valentine has shining eyes
Valentine has shining eyes
My valentine has shining eyes
Valentine has shining eyes
Dog day sunrise *
Dog day sunrise *
Dog day sunrise *
Dog day sunrise *
Valentine has shining eyes
Valentine has shining eyes
My valentine has shining eyes
Valentine has shining eyes
Dog day sunrise *
Dog day sunrise *
Dog day sunrise *
Dog day sunrise *
Dog day sunrise *
Dog day sunrise *
Dog day sunrise *
Dog day sunrise *
T-T-T-That's all, folks!!




Ваше мнение



Капча