Well since most people dont got a 7 string like dino, heres the song descent on a regular 6 string. just start of by tuning your guitar to a drop d soo it will be D A D G B E. you can drop it more if you want like down to (A, E, A, D, F#, B)
but be cautious cause it might sound too muddy so you might want to get heavier gauge strings. While listening to fear factory i noticed dino uses disonant cords and this is one of them...just to let you know if your umfamiliar with those kinds of chords.
|-----|
|-----|
|-----|
|--7--|
|--4--|
|-----|
LEGEND:
* -- palm-mute
H -- hit-on
P -- pull-off
~~~~ -- vibrato
A.H. -- Artificial Harmonic
N.H. -- Natural Harmonic
/ -- slide up
\ -- slide down
X -- lay fingers on strings to cause a "thud"; a "dead note"
Let high-pitched notes ring out. Let the final low A note sustain at
the end of the first measure
Riff A
|---2-----2-----2-------2---------2-----2--------------|
|-----3-----3-----3---3---3---------3-----3------------|
|------------------------------------------------------|
|------------------------------------------------------|
|-------------------0----------------------------------|
|-2-----4-----5-------------(0)-2-----4-----0----------|
*
|---2-----2-----2-------2---------2-----2-----------------------|
|-----3-----3-----3---3---3---------3-----3---------------------|
|---------------------------------------------------------------|
|---------------------------------------------------------------|
|-------------------0-------------------------0--0-0--0-2--2-2--|
|-2-----4-----5-------------(0)-2-----4-----0-0--0-0--0-2--2-2--|
* * * *
Riff B
|---2-----2-----2-------2---------2-----2-----2-------2----|
|-----3-----3-----3---3---3---------3-----3-----3---3---3--|
|----------------------------------------------------------|
|----------------------------------------------------------|
|-------------------0--------------------------------------|
|-2-----4-----5-------------(0)-2-----4-----0-----2--------|
*
Play chord and let it fade into the chorus
Riff C
|-------------|
|-------------|
|-------------|
|--2----------|
|--2----------|
|--2----------|
Riff D
"i feel nothing..."
|-----------------------------------------------------------|
|-----------------------------------------------------------|
|-----------------------------------------------------------|
|-2---2-4-4----4-5---5 7-7--7-2--0----------7--7-7-7-(7)-5--|
|-2---2-4-4----4-5---5 7-7--7-2--0-0-0------4--7-7-7-(7)-5--|
|-2---2-4-4----4-5---5-7-7--7-2----0-0- (0)----7-7-7-(7)-5--|
* *
Oh a quick reminder dino also use's a wah pedal which makes the octave higer for the second repeat. Just listen to the song very carefully and you'll be able to hear it.
|----------------------------------------------------------------|
|----------------------------------------------------------------|
|----------------------------------------------------------------|
|-2---2-4-4----4-5---5 7-7--7-2--0----------7-7-7--7-7-7-(7)--5--|
|-2---2-4-4----4-5---5 7-7--7-2--0-0-0------4-4-4--7-7-7-(7)--5--|
|-2---2-4-4----4-5---5-7-7--7-2----0-0- (0)--------7-7-7-(7)--5--|
|---2-----2-----2-------2---------2-----2-----2-------2----|
|-----3-----3-----3---3---3---------3-----3-----3---3---3--|
|----------------------------------------------------------|
|----------------------------------------------------------|
|-------------------0--------------------------------------|
|-2-----4-----5-------------(0)-2-----4-----0-----2--------|
* * *
|---2-----2-----2-------2---------2-----2--------------|
|-----3-----3-----3---3---3---------3-----3------------|
|------------------------------------------------------|
|------------------------------------------------------|
|-------------------0----------------------------------|
|-2-----4-----5-------------(0)-2-----4-----0----------|
|-------------|
|-------------|
|-------------|
|--2----------|
|--2----------|
|--2----------| basically repeating the first steps...get the point?
now here the interlude brige
|-------------------------------------------------------|
|-------------------------------------------------------|
|-------------------------------------------------------|
|-2-2--2-4-4--4--5-5--5-7-7--7--2---0-0---7-7--7-7--5---|
|-2-2--2-4-4--4--5-5--5-7-7--7--2---0-0---4-4--7-7--5---|
|-2-2--2-4-4--4--5-5--5-7-7--7--2---0-0--------7-7--5---|repeat (the second repeat is a octave higher on this section ---> *{octave higher}*
this part im not so sure about, since he dino use is wah pedal quit alot in this song that it hard to make out the notes, but it sounds close enough here it is...
the outro interlude "iam nothing..."
|------------------------------------------------|
|------------------------------------------------|
|------------------------------------------------|
|-2---2-----(2)---(2)-----7---7-----7-7-7---5----|
|-2---2------0-----0------4---4-----7-7-7---5----|
|-2---2------0-----0----------------7-7-7---5----|
well thats all for now, this was all done by ear so it might have some errors, if there is any email me at [email protected] plus let me know if you have the offical fear factory book. peas im outs...




Ваше мнение



Капча