[email protected]
Title: Descent
By: Fear Factory
From: Obsolete
7-string arranged for 6-string
(BDAGF#b) or (BDAF#be)
*The 3rd string is not tuned differently because it is not used in the song,
except if you tune to (BDAF#be) then the first string is not used...
Tab is for (BDAGF#b), if tuned to (BDAF#be) move up a string for the high notes
Intro/Chorus
b |-------2-------2-------2----------2-------2--------2-----------|
F#|---------3-------3-------3------3---3-------3--------3---------|
G |---------------------------------------------------------------|
A |----------------------------0----------------------------------|
D |---2-------4--------5-----------------2--------4---------------|
B |------------------------------------------------------0--------|
b |-------2-------2--------2---------2--------2-------2------------------------------|
F#|---------3-------3--------3-----3---3--------3-------3----------------------------|
G |----------------------------------------------------------------------------------|
A |----------------------------0-----------------------------------------------------|
D |---2-------4--------5-----------------2---------4---------0--0--0--2--2-2-2-------|
B |----------------------------------------------------------0--0--0--2--2-2-2-------|
(The chorus is just a variation between the first bar)
b |--------2-------2--------2--------2--------2--------2---------2--------2--------|
F#|----------3-------3--------3----3---3--------3--------3---------3----3---3------|
G |-o----------------------------------------------------------------------------o-|
A |-o---------------------------0------------------------------------------------o-|
D |---2-------4--------5-----------------2---------4-------------------------------|
B |-----------------------------------------------------------0--------2-----------|

A|--2--| (is played before each verse)
D|--2--|
B|--2--|
*there is no guitar in the verse except for the random sounds of a synth which
can be done
by a guitar with a delay pedal*
during pre-chorus
A|--2--4--5--7----------------| (Chord transition and slides are easy enough to
figure out)
D|--2--4--5--7-x2-then--0--2--|
B|--2--4--5--7----------0--2--|
*same for interlude but different timing
....and there it is basically the whole song, but probably not entirely
accurate...




Ваше мнение



Капча