-##
from:[email protected]
Fear Factory/Demanufacture
Tune down 1/2 step
w/drums and funky keyboard thing play 2 times
HEAVY P.M.................................| ..............
|------------------------------------------------------------------|
|------------------------------------------------------------------|
|------------------------------------------------------------------|
|------------------------------------------------------------------|
|------------------------------------------------------------------|
|--0--0--1--0---0--1--0---0--1--0---0---113-0-0-1-0--0-1-0---------|
...........................................| ....................
|------------------------------------------------------------------|
|------------------------------------------------------------------|
|------------------------------------------------------------------|
|------------------------------------------------------------------|
|------------------------------------------------------------------|
|-000--000---0--0-1-0---0-1-0--0-1-0--0--113-0-0--1-0--0-1-0-0-1-0-|
.........................................| .....................
|------------------------------------------------------------------|
|------------------------------------------------------------------|
|------------------------------------------------------------------|
|------------------------------------------------------------------|
|------------------------------------------------------------------|
|--000-000--0-0-1-0--0-1-0--0--1--0--0-113- 0-0--1-0--0-1-0--0-1-0-|
Rhy 1
... ..... .... ...... .... .
|------------|-----------------------------------------------------|
|------------|-----------------------------------------------------|
|------------|-----------------------------------------------------|
|-2----------|-----------------------------------------------------|
|-2----------|-----------3-2----3-2----3--2------333--5------3-2---|
|-0----------|-------000-1-0-00-1-0-00-1--0--000-111--3--000-1-0---|
.... ....... .............................. ..... ......
|------------------------------------------------------------------|
|------------------------------------------------------------------|
|------------------------------------------------------------------|
|------------------------------------------------------------------|
|----3--2------3--2------------------------------3--2-----3-2------|
|-00-1--0---00-1--0--00--0000000000000000000-000-1--0--00-1-0--00--|
.Play 2times
|----|-------------------------------------------------------------|
|----|-------------------------------------------------------------|
|----|-------------------------------------------------------------|
|----|-------------------------------------------------------------|
|3--2|-------------------------------------------------------------|
|1--0|-------------------------------------------------------------|
rhy fig 2
Desensitized by the values of life
P.M. ...................... .....................................
|------------------------------------------------------------------|
|------------------------------------------------------------------|
|------------------------------------------------------------------|
|------------------------------------------------------------------|
|------------------------------------------------------------------|
|0-0-1-0--0-1--0-0-1-0-0-113--0--0-1-0--0-1-0-0-1-0--0-0--000--000-|
Maligned and dispaired by government lies
P.M. ...................... .....................................
|------------------------------------------------------------------|
|------------------------------------------------------------------|
|------------------------------------------------------------------|
|------------------------------------------------------------------|
|------------------------------------------------------------------|
|0-0-1-0--0-1--0-0-1-0-0-113--0--0-1-0--0-1-0-0-1-0--0-0--000--000-|
rhy fig 3
Revenge is so strong I taste it on my tongue
. ...... . ....... ... ....... ....
|------------------------------------------------------------------|
|------------------------------------------------------------------|
|------------------------------------------------------------------|
|------------------------------------------------------------------|
|2---2--------2---2---------2-----2----------2------2--------------|
|0-0-0--00000-0-0-0--00000--0--0--0---00000--0--000-0--------------|
My gun will be your angel of mercy
... ...... .. ....... .... ..... .......
|------------------------------------------------------------------|
|------------------------------------------------------------------|
|------------------------------------------------------------------|
|------------------------------------------------------------------|
|2---2--------2---2---------2-----2----------2------2--------------|
|0-0-0--00000-0-0-0--00000--0--0--0---00000--0--000-0--------------|
P.M...........
|------------------------------------------------------------------|
|------------------------------------------------------------------|
|------------------------------------------------------------------|
|------------------------------------------------------------------|
|-----------------------------3--2------3--2-----3--2-----3-2------|
|--0--0--1--0-------------000-1--0---00-1--0--00-1--0--00-1-0------|
|------------------------------------------------------------------|
|------------------------------------------------------------------|
|------------------------------------------------------------------|
|------------------------------------------------------------------|
|-----3--2------3--2-----3-2-----3-2-------------------------------|
|-00--1--0---00-1--0--00-1-0--00-1-0-------------------------------|
Repeat rhy fig 2
Dislocated by the eyes of disdain
Abused beyond recognition
Repeat rhy fig 3
I can't cope with
The Madness abounding
Blasts in my head
Of Gunfire resounding
Firing Relentless
Killing the senses
|------------------------------------------------------------------|
|------------------------------------------------------------------|
|------------------------------------------------------------------|
|------------------------------------------------------------------|
|5------5-----------5-----5--3--2----2--------2-----2--------------|
|3--33--3--3--3333--3--33-3--1--0-00-0--0-113-0--00-0--0-113-0-----|
I've got No More Goddamn Regrets
I've got No More Goddamn Respect
|------------------------------------------------------------------|
|------------------------------------------------------------------|
|------------------------------------------------------------------|
|------------------------------------------------------------------|
|-2------2----------2------2---------2------2----------2------2----|
|-0--00--0---0-113--0--00--0--0-113--0--00--0--0-113---0--00--0----|
I am the thorn in your eye
|------------------------------------------------------------------|
|------------------------------------------------------------------|
|------------------------------------------------------------------|
|------------------------------------------------------------------|
|2----5----3------2----5-----7-----2-------------------------------|
|0----3----1------0----3-----5-----0-------------------------------|
riff a
|------------------------------------------------------------------|
|------------------------------------------------------------------|
|------------------------------------------------------------------|
|------9--------------9-----------9-------------9------------------|
|--8-------10~-----8-----10~---8------10~----8------10~------------|
|------------------------------------------------------------------|
w/ Drums & bass & Keyboard
|------------------------------------------------------------------|
|------------------------------------------------------------------|
|------------------------------------------------------------------|
|------------------------------------------------------------------|
|-8~---------------------------------------------------------------|
|------------------------------------------------------------------|
riff a (x2)
play 4 times
P.M.......... ...............
|-----------------|------------------------------------------------|
|-----------------|------------------------------------------------|
|-----------------|------------------------------------------------|
|-----------------|------------------------------------------------|
|---------------2-|------------------------------------------------|
|-0-0--1--0-----0-|--0--0---1--0-----------------------------------|
Repeat the next verse w/ the riffs I have show you.
That's it.
The end has variations on it but its easy so.
--Jim
By the way, again, I just tried to learn this song and havent
gotten much into it, so if I find out a better way to play it
I'll upload




Ваше мнение



Капча