Fear Factory - Dead Man Walking
Tuning: A E A D G B E
Intro:
E|-------------|
B|-------------|
G|-------------|
D|-------------| X5
A|-------------|
E|-------------|
A|--5555554~~~~|
Then last note straight into...
E|------------------------|
B|------------------------|
G|------------------------|
D|------------------------|
A|--4-5-4-5-4-5-4-5p4-----|
E|--4-5-4-5-4-5-4-5p4-----|
A|--4-5-4-5-4-5-4-5p455555|
Then right before the lyrics palm mute last verse
E|--------------------|
B|--------------------|
G|--------------------|
D|--------------------|
A|--4-5-4-5-4-5-4-5p4-|
E|--4-5-4-5-4-5-4-5p4-|
A|--4-5-4-5-4-5-4-5p4-|
PM _______________/
Then to the main riff during lyrics
E|------------------------|
B|------------------------|
G|------------------------|
D|------------------------|
A|--4-5-4-5-4-5-4-5p4-----|
E|--4-5-4-5-4-5-4-5p4-----|
A|--4-5-4-5-4-5-4-5p4-----|
PM _______________/
Then pre-chorus 3 times
E|-----------------------|
B|-----------------------|
G|-----------------------|
D|-----------------------|
A|--5h6p5xx5h6p5xx5h6p5~-|
E|--5h6p5xx5h6p5xx5h6p5~-|
A|--5h6p5xx5h6p5xx5h6p5~-|
Then chorus play 3 times through the song
E|-----------------------------------------------------------------------------------|
B|-----------------------------------------------------------------------------------|
G|-----------------------------------------------------------------------------------|
D|-----------------------------------------------------------------------------------|
A|--12-12-12-12h14p12h14-12h14/15-15-15-15-15-15-12h14p12h14-14p12-5-5-5-5h7p5h7p5h7-|
E|--12-12-12-12h14p12h14-12h14/15-15-15-15-15-15-12h14p12h14-14p12-5-5-5-5h7p5h7p5h7-|
A|--12-12-12-12h14p12h14-12h14/15-15-15-15-15-15-12h14p12h14-14p12-5-5-5-5h7p5h7p5h7-|
fill in: like i said in the notice there are a few ways to play this if you
dont want to fuck with tuning than just skip it :)
then the last 3 part after the 3rd chorus, play 3 times
E |-----------------------------------------------------------------------------------|
B |-----------------------------------------------------------------------------------|
G|------------------------------------------------------------------------------------|
D |-----------------------------------------------------------------------------------|
A |--12-12-12-12h14p12h14-12h14/15-15-15-15-15-15-12h14p12h14-14h/17-17-17-17-17-17---|
E |--12-12-12-12h14p12h14-12h14/15-15-15-15-15-15-12h14p12h14-14h/17-17-17-17-17-17---|
A |--12-12-12-12h14p12h14-12h14/15-15-15-15-15-15-12h14p12h14-14h/17-17-17-17-17-17---|
then outro play 3 times
Outro:
E|--------------------------------------------------------------------------|
B|--------------------------------------------------------------------------|
G|--------------------------------------------------------------------------|
D|--------------------------------------------------------------------------| X3
A|--5-5-5-5-5h7p5h7p5h7-5-5-5-5-5h7p5h7p5h7-5-5-5-5-5h7p5h7p5h7-5h7p5h7p5h7-|
E|--5-5-5-5-5h7p5h7p5h7-5-5-5-5-5h7p5h7p5h7-5-5-5-5-5h7p5h7p5h7-5h7p5h7p5h7-|
A|--5-5-5-5-5h7p5h7p5h7-5-5-5-5-5h7p5h7p5h7-5-5-5-5-5h7p5h7p5h7-5h7p5h7p5h7-|


Ваше мнение



Капча