Cars
Fear Factory
Tuning: 7-string guitar on a 6-string down tuned a full
step (A D G C F A).

Riff A
-|-------------------------------------------|--------------------------------
-|-------------------------------------------|--------------------------------
-|-------------------------------------------|--------------------------------
-|-7--6--0---------------7--6--0-------------|--------------------------------
-|----------7---7--77-------------7---7--77--|--------------------------------
-|-------------------------------------------|--------------------------------
* ** * **

cont.
-|-------------------------------------------|--------------------------------
-|-------------------------------------------|--------------------------------
-|-------------------------------------------|--------------------------------
-|-7--6--0---------------7--6--0-------------|--------------------------------
-|----------7---7--77-------------7---7--77--|--------------------------------
-|-------------------------------------------|--------------------------------
* ** * **

cont.
-|---------------------------|------------------------------------------------
-|---------------------------|------------------------------------------------
-|---------------------------|------------------------------------------------
-|-------4-------------4-----|------------------------------------------------
-|-4--5-----5----4--5-----5--|------------------------------------------------
-|---------------------------|------------------------------------------------

Riff B
-|--------------------------------------------------------------------------|-
-|--------------------------------------------------------------------------|-
-|-----2--------------------2------5--4-------2-----------------------------|-
-|--------2---4--5--4----------2-----------------2---4--5--4----------------|-
-|-0--------------------0-----------------0-------------------0--0-0--0-00--|-
-|--------------------------------------------------------------------------|-

cont.
-|------------------------------------------------------------------------|---
-|------------------------------------------------------------------------|---
-|-----2--------------------2------5--4-------2------------------------2--|---
-|--------2---4--5--4----------2-----------------2---4--5--4-----0--2-----|---
-|-0--------------------0-----------------0-------------------0-----------|---
-|------------------------------------------------------------------------|---

Arrangement:

Riff A (x4)
Riff B (x1)
Riff A (x2)
Riff B (x1)
Riff A (x2)
Riff B (x1)
Riff A (x5) and fade
end




Ваше мнение



Капча