-##
From: [email protected]
Fear Factory-Body Hammer
Demanufacture
Ok, 2 riffs, I cant hear the guitar in the background of the
chorus so if someone can figure out the rest of this song it
would be cool, My band and I have fun just jamming to this as
it is but having the whole song would rock.
Verse Riff
|--------------------------------------------------------------------------|
|--------------------------------------------------------------------------|
|--------------------------------------------------------------------------|
|-------------------------------------2/5-3--------------------------------|
|-3---------6--------------3-----6----2/3-1----3-------6-------3-----------|
|-1--0---0--4--0--0--0--0--1--0--4-------------1-0--0--4-0--0--1-----------|
|-------------------|
|-------------------|
|-------------------|
|-------------------|
|-------------------|
|-0-0-0-0-0-0-0000--|
*do variations on this riff, I dont have time =)
|--------------------------------------------------------------------------|
|--------------------------------------------------------------------------|
|--------------------------------------------------------------------------|
|--------------------------------------------------------------------------|
|-2---2-6--6-2----6-5--6-5--3----------------------------------------------|
|-0---0-4--4-0----4-3--4-3--1----------------------------------------------|
***********************************************************************
My victims never knew what was going| Hey ummmmmmmmmkay Dude!
to happen next. I've had shootings |
Knifings, Beatings and I have |
Participated in actual crucifixions |**********************************
of humans. All across the country |Fav Bands
There's people like me... |Megadeth/Slayer/Pantera/Sepultura
Who's set out to destroy |Fear Factory/Machine Head/Nailbomb
Human Life. |Deicide etc.
-Excerpt from`Henry Lee Lucas Confesses'
***********************************************************************
From: [email protected] (Kristian Wichmann)
Subject: The Chorus for Body Hammer by Fear Factory.
Date: Mon, 08 Jan 96 14:32:47 +0100
For: Body Hammer by Fear Factory, from the record Demanufacture.
In response to [email protected]:
You asked for the guitar part played during the chorus. This is what I think
is played:
|-------------------||
|------------------o||
|------------------o||
|-------------------||
|-2--8--7--8-7-5----||
|-0--6--5--6-5-3----||
However I haven't tried playing it while actually hearing the record, so the
key may be wrong, but I am quite sure the intervals are right.
Fear Factory kicks serious butt (great live band too)!!!
From: [email protected]
Al magt til danskerne!!!




Ваше мнение



Капча