song:Big God
artist:Fear Factory
transcribed by Brian Van Maurik ([email protected])

Tune all strings down a perfect fourth (B, E, A, D, F#, B)

* means mute

I've transcribed Big God and I think it's pretty close. Forget Raped Souls. It gets
too fast and the guitar becomes inaudible over Ray's cymbals crashing. Any suggestions are
welcome.

Intro: After Burton stops yelling...
|-----------------------|
|-----------------------|
|-----------------------|
|-----------------------|
|--4-4-4-4-2--4-4-4-4-2-|
|--2-2-2-2-0--2-2-2-2-0-|
* * * * * * * * * *

Verse Riff A
|----------------------|
|----------------------|
|----------------------|
|----------------------|
|--2222-4444-2222-4444-|
|--0000-2222-0000-2222-|
no remorse for the pain....

Verse Riff B
|--------------|
|--------------|
|--------------|
|--------------|
|--9-----7-----|
|--7-----5-----|
look into the eyes of death....

Riff C
|-------------------|
|-------------------|
|-------------------|
|-------------------|
|--77---6---4-------|
|--55-0-4-0-2-0000--|
****
Liar... Big God,No God!

Riff D
|----------------------------|
|----------------------------|
|------------------------9-8-|
|------------------------7-6-|
|--4-4-4-4-2--4-4-4-4-2------|
|--2-2-2-2-0--2-2-2-2-0------|
* * * * * * * * * *
ah-ah

Raped Souls???????????????




Ваше мнение



Капча