ACRES OF SKIN
7-STRING TUNED DOWN DROPPED A (LOW TO HIGH) -> A E A D G B E
6-STRING TUNED DOWN 2.5 STEP, DROPPED A (LOW TO HIGH) -> A E A D G B
NH= natural harmonic
* = palm mute

RIFF A
E|-----------------------------|
B|-----------------------------|
G|-----------------------------|
D|-----------------------------|
A|-----------------------------|
E|--6--5--4-4-4----------------|
A|--6--5--4-4-4---x--x--x-x-x--|
RIFF B
E|--------------|
B|--------------|
G|--------------|
D|--------------|
A|--------------|
E|--6--5--4-4-4-|
A|--6--5--4-4-4-|
RIFF C
E|----------------------------|
B|----------------------------|
G|----------------------------|
D|----------------------------|
A|----------------------------|
E|--6--5--4-4-4---4--4--3--3--|
A|--6--5--4-4-4---4--4--3--3--|
* * * *
FILL 1 7x
E|--------||------------------||---------|
B|--------||------------------||---------|
G|--------||o----------------o||---------|
D|--------||------------------||---------|
A|--------||o----------------o||---------|
E|--------||------------------||---------|
A|--3--3--||-3-3-3-3-3--3--3--||-3-3-3-3-|
* * * * * * * * * * * * *
RIFF D 3x
E|--------||------------------||--------|
B|--------||------------------||--------|
G|--------||o----------------o||--------|
D|--------||------------------||--------|
A|--------||o----------------o||--------|
E|--------||------------------||--------|
A|--4--4--||-4-4-4-4-4--4--4--||--4-4-4-|
* * * * * * * * * * * *
RIFF E
E|--------||------------------||--------------|
B|--------||------------------||--------------|
G|--------||o----------------o||--------------|
D|--------||------------------||--------------|
A|--------||o----------------o||--------------|
E|--------||------------------||--------------|
A|--4--4--||-4-4-4-4-4--4--4--||--5-5-5-5-5-5-|
* * * * * * * * * * * * * * *
RIFF F
E|---------------------|
B|---------------------|
G|---------------------|
D|---------------------|
A|---------------------|
E|--5/7--5/7-----------|
A|--5/7--5/7--5-5-5-5--|
* * * *
RIFF G
E|----------------------|
B|----------------------|
G|----------------------|
D|----------------------|
A|----------------------|
E|--5/7--7/10-----------|
A|--5/7--7/10--5-5-5-5--|
* * * *
RIFF H
E|-----------------|--------------------|
B|-----------------|--------------------|
G|-----------------|--------------------|
D|-----------------|--------------------|
A|-----------------|--------------------|
E|--4--5--4--9--8--|--4--5--4--9--8--6--|
A|--4--5--4--9--8--|--4--5--4--9--8--6--|
FILL 2 3x
E|--------||------------------||--------|
B|--------||------------------||--------|
G|--------||o----------------o||--------|
D|--------||------------------||--------|
A|--------||o----------------o||--------|
E|--------||------------------||--------|
A|--3--3--||-3-3-3-3-3--3--3--||-3-3-3--|
* * * * * * * * * * * *
FILL 3 3x NH NH NH NH
E|--------||------------------||-------------------|
B|--------||------------------||-------------------|
G|--------||o----------------o||-------------------|
D|--------||------------------||-------------------|
A|--------||o----------------o||-------------------|
E|--------||------------------||-------------------|
A|--3--3--||-3-3-3-3-3--3--3--||-5--4--2.75--2.25--|
* * * * * * * * *
RIFF I
E|------|------|------|----------|
B|-3--3-|-3--3-|-3--3-|----------|
G|---5--|---5--|---5--|----0---0-|
D|--5---|--6---|--3---|--3---1---|
A|------|------|------|----------|
E|------|------|------|----------|
A|------|------|------|----------|
RIFF J
E|-------------|
B|-------------|
G|--5-5--7--5--|
D|-------------|
A|-------------|
E|-------------|
A|-------------|
RIFF K
E|-------------------|--------------------|
B|-------------------|--------------------|
G|-------------------|--------------------|
D|-------------------|--------------------|
A|-------------------|--------------------|
E|--4--5--4--9--8--8-|--4--5--4--9--8--6--|
A|--4--5--4--9--8--8-|--4--5--4--9--8--6--|
PLAYLIST
RIFF A 4x
RIFF B 3x
RIFF C 2x
RIFF B 3x
RIFF C 4x
FILL 1
RIFF D
RIFF E
RIFF D
RIFF E
RIFF F 2x
RIFF D
RIFF E
RIFF D
RIFF E
RIFF F 4x
RIFF G 4x
RIFF H 4x
FILL 2
FILL 3
RIFF D
RIFF E
RIFF D
RIFF E
RIFF F 4x
RIFF G 4x
RIFF H 4x
RIFF I 2x
RIFF J 16x
RIFF H 4x
RIFF K 4x (last time -> last 4 chords palmmuted)




Ваше мнение



Капча