Artist: FatBoy Slim
Album: You've Come A Long Way, Baby
Song: The Rockafeller Skank
Submitted by: Steve D ([email protected])
[Intro] Repeat 3 times
E|-------------------------------------|
B|-------------------------------------|
G|-------------------------------------|
D|-------------------------------------|
A|--4h5-5-4h5-5-5-5-4h5-5-4h5-5-5-5----|
E|-------------------------------------|
[Intro] Repeat 7 times
E|-------------------------------------|
B|-----8---8-----8----8----------------|
G|-------------------------------------|
D|--5---5-----5---5--------------------|
A|-------------------------------------|
E|-------------------------------------|
[Chorus/Verse]
Right about now, the funk soul brother
E|-------------------------------------|
B|------8----------6------8------------|
G|------7----------3------9------------|
D|------------------------10-----------|
A|-------------------------------------|
E|-------------------------------------|
Check it out now, the funk soul brother
E|-------------------------------------|
B|--------8--------6------8------------|
G|--------7--------3------9------------|
D|------------------------10-----------|
A|-------------------------------------|
E|-------------------------------------|
Interlude
E|-------------------------------------|
B|-----8------8----------8-10^---------|
G|--7-----7-7---7--9-9-9---------------|
D|-------------------------------------|
A|-------------------------------------|
E|-------------------------------------|
Well thats the whole song, you just need to listen to it to put the
different parts together. Comments, questions: [email protected]




Ваше мнение



Капча