Fatboy Slim-right here,right now
[email protected]
Fatboy Slim-Right here,right now
e|-------------------------------|--------------------------------|--------------------------------|--------------------------------|
|--------------------------------|--------------------------------|--------------------------------|--------------------------------|
|--------------------------------|--------------------------------|--------------------------------|--------------------------------|
|--------------------------------|--------------------------------|----------------1---------------|--------------------------------|
|1---------------3---------------|--------------------------------|1---3---4---3---3---4---3---1---|----1---3---1---4---3---1-------|
E|-------------------------------|4---------------3---------------|--------------------------------|4---------------3-----------4---|
Guitar:
e|--6--8--9--8--11--9--8--6------|--4--6--8--6--9--8--6--4--------|--------------------------------|--------------------------------|
|--------------------------------|--------------------------------|--------------------------------|--------------------------------|
Bass:
|--------------------------------|--------------------------------|--------------------------------|--------------------------------|
|----------------1---------------|--------------------------------|----------------1---------------|--------------------------------|
|1---3---4---3---3---4---3---1---|----1---3---1---4---3---1-------|1---3---4---3---3---4---3---1---|----1---3---1---4---3---1-------|
|--------------------------------|4---------------3-----------4---|--------------------------------|4---------------3-----------4---|
|--------------------------------|--------------------------------|--------------------------------|--------------------------------|
|--------------------------------|--------------------------------|--------------------------------|--------------------------------|
|--------------------------------|--------------------------------|--------------------------------|--------------------------------|
|--------------------------------|--------------------------------|--------------------------------|--------------------------------|
|-1-1-1-1-1-1-1-1-1-1-1-1-1-1-1--|--1--1--4--1--1--4--3--1--------|-1--1--3--1--1--3--1------------|-1--1--4--1--1--4--3--1---------|
|--------------------------------|--------------------------------|--------------------------------|--------------------------------|
|--------------------------------|--------------------------------|
|--------------------------------|--------------------------------|
|--------------------------------|--------------------------------|
|--------------------------------|--------------------------------|
|--1--1--3--1--4--3--1-----------|--1--1--4--1--1--4--3--1--------|
|--------------------------------|--------------------------------|
|---6--4--6--8--6--4--1----------|
|--------------------------------|
|--------------------------------|
|--------------------------------|
|--------------------------------|
|--------------------------------|
TabsMail...
http://tabsmail.8m.com
!Exclusive-TabsMail!




Ваше мнение



Капча