Fastball - Was I out of my head?
Intro:
E B C#m E7 A E F# B A
E G#m
Sometimes I feel, like I am drunk behind the wheel
A E F# B
The wheel of prosperity however it may roll
E G#m
Give it a spin, see if you can somehow factor in
A E
You know there's always more than one way
F# B E
To say exactly what you mean to say
Chorus:
E B C#m
Was I out of my head? Was I out of my mind?
E7 A
How could I have ever been so blind?
E
I was waiting for an indication
F# B
It was hard to find
E B C#m
Don't matter what I say only what I do
E7 A
I never mean to do bad things to you
E
So quiet but I finally woke up
F# B A
If you're sad then it's time you spoke up too
Solo:
------------------------------------------------------------|
------------------5h7--/9----------9------------------------|
--------------4h6----------9--9h11---9--9h11----------6b8---|
-------2h4-/6---------------11--------11-----9-9-9-11-----9-|
-0-2/4------------------------------------------------------|
------------------------------------------------------------|
-----------------------------------------------14-14-12-----|
----------------------9------12-14-14-12--12/14-------------|
-----6-----------9h11---9--13-------------------------------|
-7-9---7-7-9-7-9--------------------------------------------|
------------------------------------------------------------|
------------------------------------------------------------|
Chorus twice...end on E
Originally tabbed by Joakim Sch?ning
Corrections by Henrik Sollin




Ваше мнение



Капча