Fire Escape

Main riff

e--------3----3-----2-----
b----3-----3----3-----3---
g------2-----2----2-----2-
d--0----------------------
a-------------------------
e-------------------------

riff when he sings : i don't know ... about you
e--3~~~~~-0~~~~~~-
b--3~~~~~-0~~~~~~-
g--0~~~~~-0~~~~~~-
d--0~~~~~-2~~~~~~-
a--2~~~~~-2~~~~~~-
e--3~~~~~-0~~~~~~-

e-------------------------------------------------------------
b---------------------------------------------3-3-3-3-3-3-3-3-
g-2-2-2-2-2-2-2-2-2-2-2-2-2-2-----------------2-2-2-2-2-2-2-2-
d-2-2-2-2-2-2-2-2-2-2-2-2-2-2-0-0-0-0-0-0-0-0-0-0-0-0-0-0-0-0-
a 0 0 0 0 0 0 0 0 0 0 0 0 0 0 2 2 2 2 2 2 2 2-----------------
e-----------------------------3-3-3-3-3-3-3-3-----------------

i'm____in the way of a long long fire escape 1.and i
2.i can
e--3~~~~~~~~~~~~~-0~~~~~~~~~~~~~~-
b--3~~~~~~~~~~~~~-0~~~~~~~~~~~~~~- main riff once then 2 :
g--0~~~~~~~~~~~~~-0~~~~~~~~~~~~~~-
d--0~~~~~~~~~~~~~-2~~~~~~~~~~~~~~-
a--2~~~~~~~~~~~~~-2~~~~~~~~~~~~~~-
e--3~~~~~~~~~~~~~-0~~~~~~~~~~~~~~-
may not be the man you want me to
be myself_____ how 'bout you?

then just listen to the song get the timing, the patterns and the
groove. P.S. it ends on a D. hey, have a great time.

joker

please send corretions to: [email protected]




Ваше мнение



Капча