Song: The Patron Saint of Liars and Fakes
Artist: Fall Out Boy
Tabbed By: Sam Klemz ([email protected])
Drop D Tuning
/ Slide
2h3 Hammer-on
. Palm Mute
This first part I wasn't so sure about the note palm muted it could be the
F powerchord (333) but this works.
Intro Gtr 1
e|-----------------------------------------------------------|
B|-----------------------------------------------------------|
G|------3-----2---3---5-----3-----2-----------5------------5-|x 4
D|--3-3-3-3-3-3-3-3-3-3-3-3-3-3-3-3-----3-2h3--------3-2h3---|
A|--3-3------------------------------------------------------|
D|--3-3-----------------------------3-3----------3-3---------|
. . . . . . . . . . . . . .
Intro Gtr 2
e|--1---1---3---3-|
B|----1---1---1---|x 12
Then both guitars
e|-----------------------|
B|-----------5/66666665--| (or just hit 5 and bend it)
G|-----------------------|
D|-3-3--3-3--------------|
A|-3-3--3-3--------------|
D|-3-3--3-3--------------|
. . . .
Verse Gtr 1
e|-------------------------|
B|-------------------------|
G|-------2--3-----------3--|
D|-3--0--2--3---3--0h3--3--|X 2
A|-3--0--0--1---3--0h3--1--|
D|-3--0---------3--0h3-----|
.
Verse Gtr 2 (Change with Gtr 1)
e|-------------------------|
B|-------------------------|
G|-5-4/5-4/5-7--5-4/5-10---|
D|-x-x-x-x-x-x--x-x-x--x---|X 2
A|-3-2/3-2/3-5--3-2/3--8---|
D|-------------------------|
Chorus Gtr 1
e|-----------------------|
B|-----------------------|
G|-3-----7--5---3-----7--|
D|-3--3--7--5---3--3--7--|X 2
A|-1--3--5--3---1--3--5--|
D|----3------------3-----|
.
Chorus Gtr 2
e|--------------------------------------|
B|--------------------------------------|
G|10-8/10-14-12/1412-10-9/10-14--1412---|
D|-x-x-x---x--x--x--x--x-x-x---x---x--x-|X 2
A|-8-7/8--12-10/1210--8-7/8--12--1210---|
D|--------------------------------------|
.
Intro Gtr 1 X 2 (Don't play last measure)
Intro Gtr 2 x 7
Verse X 2
Chorus X 2
For the first part of the interlude just play the chorus once
with the different rthyhm and then on the 2nd palm mute with no
octaves.
Interlude Gtr 1
e|-------------|
B|-------------|
G|-2--3--------|
D|-2--3--3--0--|X 4
A|-0--1--3--0--|
D|-------3--0--|
. . . .
Interlude Gtr 2
e|-5-----6-5----|
B|---6-------6--|
G|-----5--------|
D|--------------|X 4
A|--------------|
D|--------------|
That starts earlier but fades in, you figure out when to start it.
Intro Gtr 1 x 4
Intro Gtr 2 x 16
Play the last part of the intro and end on open D
If you think this is wrong then do it yourself.




Ваше мнение



Капча