Band: Fall Out Boy
Song: Short Fast And Loud

Tabber: John Cukras
Email: [email protected]

Tuning: Normal

Intro:
E-------------------------
B-------------------------
G-------------------------
D-----------------------2-
A-4--2-3-4-5-4-3-4-5-6--2-
E-2----------2----------0-

Riff 1: 2 guitars. 0pm's throughout.
E----------------------------------------------------------------------------------
B----------------------------------------------------------------------------------
G----------------------------------------------------------------------------------
D-3-2-3-2-3-2-3-5-3-2-3--5-7-9-10-9-7-5--3-2-3-2-3-2-3-5-3-2-3------22----22----22-
A------------------------3-5-7-8--7-5-3-----------------------------22----22----22-
E----------------------------------------------------------------00-00-00-00-00-00-

Riff 2: Simultaneously.
E-------------
B-------------
G-------------
D-22--3-5-3-2-
A-22----------
E-00----------

Riff 1

Riff 3:
E--------------------------------------------------
B--------------------------------------------------
G--------------------------------------------------
D----9----99-----7----77-----5----55-----7----77---
A-77---77-----55---55-----33---33-----55---55------
E--------------------------------------------------

Riff 2




Ваше мнение



Капча