Song: Sending Postcards From A Plane Crash (Wish You Were Here)
Album:Take This To Your Grave
Artist: Fall Out Boy
Tabber:Aaron Wagner

Standard Tuning

Intro-Pt. 1
~Guitar 1~
e:-----------|
B:-----------|
G:-----------|
D:--2-2------|
A:--2-2------|
E:--0-0------|

~Guitar 2~
e:--------------------|
B:--------------------|
G:--9-9--11-11-13-13--|
D:--x-x--x--x--x--x---|
A:--7-7--9--9--11-11--|
E:--------------------|

Intro-Pt. 2
~Guitar 1~
e:---------------------------------------|
B:---------------------------------------|
G:---------------------------------------|
D:--2-2-2-2-2-2-2-2--4-4-4-4--6-6-6-6----|
A:--2-2-2-2-2-2-2-2--4-4-4-4--6-6-6-6----|
E:--0-0-0-0-0-0-0-0--2-2-2-2--4-4-4-4----|

~Guitar 2~
e:------------------------------------------------|
B:------------------------------------------------|
G:--16~--9-9--11-11--9-9--11-11--9-9--11-11--9-9--|
D:--x----x-x---x--x--x-x---x--x--x-x--x--x---x-x--|
A:--14~--7-7---9--9--7-7---9--9--7-7--9--9---7-7--|
E:------------------------------------------------|
x2
e:------------------------------------------------| /
B:------------------------------------------------| /
G:--13~--9-9--11-11--9-9--11-11--9-9--11-11--9-9--| /
D:--x----x-x---x--x--x-x---x--x--x-x--x--x---x-x--|/
A:--11~--7-7---9--9--7-7---9--9--7-7--9--9---7-7--|




Ваше мнение



Капча