band: fall out boy
song: ode to the hourglass

tabber: John Cukras
email: [email protected]

tuning: normal

riff 1: Guitar 1 Guitar 2
E--------------------------------------|--------------
B--------------------------------------|--------------
G----6-7----6----7----5-4-3-4----------|--------------
D-55-----55---55---55------------------|--------------
A--------------------------------------|--44-444-33-33
E---------------------------- x's 10--|--22-222-11-11 x's 8
pm.. .. .. .. .. ... .. ..

Riff 2:
E-----------------------------------------------
B-----------------------------------------------
G-----------------------------------------------
D-44-4-44-77--44-4-44-77--66-6-66-99--66-6-66-99
A-22-2-22-55--22-2-22-55--44-4-44-77--44-4-44-77 x's 4
E-----------------------------------------------

Riff 3:
E--------------------151412-151412-151412-151412-15-14-12-15-14-12
B-----------------------------------------------------------------
G-----------------------------------------------------------------
D-----------------------------------------------------------------
A-44-4-777-66-6-999-----------------------------------------------
E-22-2-555-44-4-777----------------------------------------------- x's 2

Riff 4:
E---------------------------------------------------------------
B---------------------------------------------------------------
G---------------------------------------------------------------
D------------------7------9----------------7-9-7----------9-11-9
A----44----55----7------9--------------7-8-----------9-10-------
E-00----00----00-----00---- x's 3--00------------00------------ All x's 2
pm.. .. .. .. .. ..

Riff 5:
E-----------------------------------------------------------------------------------------------
B-----------------------------------------------------------------------------------------------
G-----------------------------------------------------------------------------------------------
D-44-444-77777---44-444-77-777------------------------44-444-77-777-----7-5----7-5----7-5----7-5
A-22-222-55555---22-222-55-555--44-444-77-777---------22-222-55-555--55-----55-----55-----55---- x's 3
E-------------------------------22-222-55-555 x's 3---------------------------------------------
pm .. .. .. ..

Riff 6:
E------------------------------------------------------------------
B------------------------------------------------------------------
G------------------------9----9----9----9----9------6-7----6----7/9
D-444--7---4-4-7-7-----7----7----7----7----7-----55-----55---55----
A-222--5---2-2-5-5---0----0----0----0----0------------------------- x's 4
E------------------------------------------------------------------
pm .. .. ..

Riff 7:
E------------------------------------------
B------------------------------------------
G------------------------------------------
D-3/4-4-44-3/4-4-44-3/4-4-44--------------4
A-1/2-2-22-1/2-2-22-1/2-2-22--7-5---------2
E-----------------------------5-3 x's 4---




Ваше мнение



Капча