band: fall out boy
song: nobody puts baby in the corner

tabber: John cukras
email: [email protected]

tuning: Drop D - acoustic

Riff 1:
E----------------------------------------------|
B----------------------------------------------|
G---4-444-444-444-444--6-666-666-666-666-------|
D---4-444-444-444-444--6-666-666-666-666-------|
A---2-222-222-222-222--4-444-444-444-444 x's 2-|
D----------------------------------------------|

Riff 2:
E------------------------------------|
B------------------------------------|
G--------22------22------------------|
D----33--22--33--22-55-33-55-33------|
A----33--00--33--00-55-33-55-33------|
D----33------33-----55-33-55-33 x'2-|

Riff 3:
E-----------------------------------------------|
B-----------------------------------------------|
G-----222222-----------------222222-5-5-5-5-5-5-|
D-----222222-----------------222222-5-5-5-5-5-5-|
A-----000000-5-6-7-333-5-6-7-000000-3-3-3-3-3-3-|
D------------5-6-7-333-5-6-7--------------------|

Riff 4:
E---------------------------------------------|
B---------------------------------------------|
G---------------------------------------------|
D-----5-44-5-55--------5-5-55-55-55-55-555555-|
A-----5-22-5-33-x's 3--5-3-33-33-33-33-333333-|
D-----5----5-----------5----------------------|

Riff 5: Guitar 1 Guitar 2 One way Another
E-------------------------------------|--------------------------------------------------|
B-------------------------------------|--------1---3--1-----1---------11----33-11-33-----|
G-----44---------------222222---------|--2--2----2-------2---------22----22--------------|
D-----22--555555-------222222---------|-----------------------------------------------33-|
A---------333333-5-6-7-000000-5-6-7---|--------------------------------------------------|
D----------------5-6-7--------5-6-7---|--------------------------------------------------|

Riff 4

Riff 1

Riff 2 (with guitar 2 from riff 5, first one preferably)

Riff 6:
E---------------------------------|
B---------------------------------|
G----222222-----------------------|
D----222222-----------------------|
A----000000-5-6-7-333-5-6-7-55555-|
D-----------5-6-7-333-5-6-7-55555-|

Riff 5

Riff 7: Guitar 2 - Riff 5 - First one repeatedly
E------------------------------------------------------------|
B------------------------------------------------------------|
G---------2----------22------22--------2222--------2------2--|
D----55---2--5--5555-22-5555-22-555555-2222---7777-2-7777-2--|
A----33---0--3--3333-00-3333-00-333333-0000---5555-0-5555-0--|
E------------------------------------------------------------| Switches Between the two chords.

Riff 5

Damn acoustic are a pain :P




Ваше мнение



Капча