Band: Fall Out Boy
Song: More Than I Can Take

Tabber: John Cukras
Email: [email protected]

Tuning: Normal

Riff 1:
E--------------------------
B--------------------------
G--------------------------
D--------------------------
A-77777-5555-3333-5555-----
E-55555-3333-1111-3333-----
pm..... .... .... ....

Riff 2:
E---------------------------------------
B---------------------------------------
G---------------------------------------
D---------------------------------------
A-5555555-3333333-7777777-999999--------
E-3333333-1111111-5555555-777777--------

Riff 3:
E--------------------------------------------------------------------------------------------
B-----------12-10-9-7-5----------------------------11h12-------------------------------------
G----------------------------------7~--------------------12-11-9-----------------------------
D--------------------------------------------------------------------------------------------
A-55-77-99----------------55-77-99------55-77-99-------------------55-77-99------------------
E-33-55-77----------------33-55-77------33-55-77-------------------33-55-77--5-6-7-8-5-6-7-8-

Continued:
E---------------------------------------------------------77777777-5555555-9999999-10--
B---------------10-9----10-9----10-9----9h109h109h109h10-------------------------------
G--------------------10------10------10------------------------------------------------
D--------------------------------------------------------------------------------------
A-77-55-33-55--------------------------------------------------------------------------
E-55-33-11-33--------------------------------------------------------------------------

Riff 2




Ваше мнение



Капча