band: fall out boy
song: joe the janitor

tabber: John Cukras
email: [email protected]
Aim: sanguinarylord

Tuning: normal
| Part A | Part B
Riff 1: Guitar 1 Guitar 2 - 10's. | Guitar 1 Guitar 2 Played the 2nd time around
E-----------------|----------------------------------|---------------|-------------------------|------------------------------------------
B-----------------|----------------------------------|---------------|-------------------------|------------------------------------------
G-----------------|----------------------------------|---------------|-------------------------|7-7-6-6/10-10-101010101010--10-10-9-10-7-8
D-5555555---------|----------------------------------|-555555555555--|---------7-6-------------|------------------------------------------
A-3333333-4444444-|1010101010101010-333333333--------|-333333333333--|10101010-5-4-3333--------|------------------------------------------
E---------2222222-|-------------------------- x's 8-|---------------|----------------- x's 2-|------------------------------------------

Riff 1 Part A x's 4

Riff 2: Guitar 1 Guitar 2
E----------------------------------|---------------
B----------------------------------|---------------
G----------------------------------|---------------
D-77777-99999-55555-888888---------|------9------11
A-55555-77777-33333-666666 x's 4--|--7-6----9-8--- x's 8
E----------------------------------|---------------

Riff 1 Part A x's 6 Then B x's 2 Then A x's 4

Riff 2

Riff 3:
E------------------------------------------------------------------------------------------------------
B-----------------------------------------------------------------------------10101010-77-8888-77/55555
G--------------------------------------------------------9999-66-7777-6/5555---------------------------
D------------------------------------------------------------------------------------------------------
A-101010101010-10/121212-1515151515-141414-1313-12-9-99------------------------------------------------
E------------------------------------------------------------------------------------------------------

Riff 2




Ваше мнение



Капча