Artist Name: Fall Out Boy
Tab Name: Grand Theft Autumn (Where's Your Boy)

Original Tabber: Didn't put their name!

E-------------------------------------------------------------
B-------------------------------------------------------------
G--11--9-------------11--9--------------11--9------9--11------
D----------12----------------12--12------------12---------12--
A---------------12--------------------------------------------
E-------------------------------------------------------------

E-------------------------------------------------------------
B------------------------------------------------------------- played many different
G----------9--11--9---------9-------------9--11--11--9-------- speeds throughout.
D--12--12------------12--------12-----12----------------12----
A------------------------12-----------------------------------
E------------------------------------------------------------- /

E------------------------------------------------------------- /
B------------------------------------------------------------- /
G-----------11--9--------------------------------------------- /
D------------------12--12-------------------------------------
A--12--10-----------------------------------------------------
E-------------------------------------------------------------

Intro (Distortion) Fool Around With This (the trem parts)
E-------------------------------------------------------------
B-------------------------------------------------------------
G--6/7--------------------------------------------------------
D-------------------------------------------------------------
A--4/5--------------------------------------------------------
E-------------------------------------------------------------

Intro (Distortion, Played During Above)
E-------------------------------------------------------------
B-------------------------------------------------------------
G-------------------------------------------------------------
D--12---9---7-------------------------------------------------
A--12---9---7-------------------------------------------------
E--10---7---5-------------------------------------------------

Schec here:
I really didn't believe this tab either when I first saw it,
but all the riffs are derived from those 3 powerchords and
that solo is played throughout the song.

It's legit!




Ваше мнение



Капча