Band: Fall out boy
song: forget the day

tabber: John Cukras
Email: [email protected]

tuning: normal

riff 1:
E-------------------------------------------------------------------
B-------------------------------------------------------------------
G-------------------------------------------------------------------
D-4------4444-3-------3333-5------5555-4------4444-2--44--33--55--44
A-2------2222-1-------1111-3------3333-2------2222-2--22--11--33--22
E---0000--------00000--------0000--------0000------0----------------
pm .... ..... .... ....

Riff 2: Part A Part B
E--------------------------------------------|--------------
B--------------------------------------------|--------------
G--------------------------------------------|--------------
D-44444444-333333333-555555555-4444444-------|--4--3--5--4-4
A-22222222-111111111-333333333-2222222-------|--2--1--3--2-2
E------------------------------------- x's 2|-------------- x's 2 Then part A x's 4.

Riff 3: Light Pm-ing.
E-----------------------------------------------------------
B-----------------------------------------------------------
G-----------------------------------------------------------
D-4-22222-3-1111-5-3333-4-2222-4-22222-3-1111-5-3333-4-44444
A-2-------1------3------2------2-------1------3------2-22222
E-----------------------------------------------------------
pm ..... .... .... .... ..... .... ....

Riff 2 Part A x's 10 (till end)




Ваше мнение



Капча