Band: Fall Out Boy
Song: Fellowship of the Nerd

Tabber: John Cukras
AIM: Sanguinarylord

Tuning: normal

Riff 1: Guitar 1 Guitar 2
E--------------------------------------------------------------------|---------------
B--------------------------------------------------------------------|---------------
G--------------------------------------------------------------------|---------------
D----------------777777-666666-2-------------------------------------|--9999999999999
A-7777777-555555-555555-444444-2---------7--------6---------------7--|---------------
E-5555555-333333---------------0-0000000-5-000000-4-000000 x's 2--5--|---------------
pm ....... ...... ......

Riff 2: Part A Part B (10's 12's)
E----------------------------------------------------------------------------------|-----------------------------
B----------------------------------------------------------------------------------|-----------------------------
G----------------------------------------------------------------------------------|-----------------------------
D----------------------------------------------------------------------------------|-----------------------------
A----7----7----5----5----11----11----9----9-----------7----7----5----5----11----11-|-999999--11-5-12121212-101010
E-00-5-00-5-00-3-00-3-00-9--00-9--00-7-00-7 x's 3--00-5-00-5-00-3-00-3-00-9--00-9--|-777777--9--3-10101010-888888 x's 2
pm.. .. .. .. .. .. .. .. .. .. .. .. .. ..

Riff 2 Part A

Riff 3: Pm's start on 4th time -----x here.
E---------------------------------------------------------------------
B---------------------------------------------------------------------
G---------------------------------------------------------------------
D------------2-----2----------------------------------22222222222222-2
A-99999---7--2--4--2--------7---5/4/7-5-4-------5/4/7-22222222222222-2
E-77777---5--0--2--0 x's 4--5------------ x's 5-------00000000000000-0
pm ..............

Riff 4: Guitar 1 Guitar 2
E---------------------------------------|-------
B---------------------------------------|-------
G---------------------------------------|-------
D---------------777777-666666--------6--|-------
A-777777-555555-555555-444444-x's 8--4--|--5/4/7
E-555555-333333-------------------------|------- x's 12




Ваше мнение



Капча