Calm Before The Storm - Fall Out Boy
* = palm mute
> = continue to strum(if star under it, then palm mute the strum)
h = hammer on
~ = let ring
Intro x4
e-----------------------------------------------------------------------
b-----------------------------------------------------------------------
g-----------------------------------------------------------------------
d-------------------------------------------7------7-------7--------7---
a--4-4--4h5---4-4--4h5------------------55-----44-----22------22--------
e---------------------------55--99--77----------------------------------
* * * * ** ** **
Verse x2 (palm mute)
e------------------------------------------------------------------
b------------------------------------------------------------------
g--7~ ---------------------------------------4>--------------------
d--7~ ----7>-----2>-----4>-----2>-----7>-----4>----4>----2>--------
a--5~ ----7>-----2>-----4>-----2>-----7>-----2>----4>----2>--------
e---------5>-----0>-----2>-----0>-----5>-----------2>----0>--------
* * * * * * * *
Pre-Chorus x4
e--------------------
b--------------------
g--7>----------------
d--7>----4>----2>----
a--5>----4>----2>----
e--------2>----0>----
Chorus x2
e--------------------------------------------
b--------------------------------------------
g--------------------------------------------
d--77--77----22--22----44--44----7>----2>----
a--77--77----22--22----44--44----7>----2>----
e--55--55----00--00----22--22----5>----0>----
Intro
Verse
Pre-Chorus
Chorus (guitar 1 does regular chorus)
Guitar 2 Chorus(this time only)
e---------------------
b---------------------
g--x-2-2---x-4-4------
d---------------------
a---------------------
e---------------------
Bridge (guitar 1) repeat a lot
e---------------------------------
b---------------------------------
g---------------------------------
d---------------------------------
a---44444-4h5---44444 4h5---------
e---------------------------------
***** *****
Bridge(guitar 2) listen on this part, its a weird rhythm, letting on and off
e----------------------
b----------------------
g--7>------------------
d--7>-----4>-----2>----
a--5>-----4>-----2>----
e---------2>-----0>----
Bridge2(cont.) (guitar 2) x5
e--------------------------------------
b--------------------------------------
g---7>----6>----7>-----9>--------------
d---x>----x>----x>-----x>-------7~ ----
a---5>----4>----5>-----7>-------7~ ----
e-------------------------------5~ ----
Bridge(cont.)(same as pre-chorus) Guitar 1 x4
e----------------------------
b----------------------------
g--7>------------------------
d--7>----4>----2>------7~ ---
a--5>----4>----2>------7~ ---
e--------2>----0>------5~ ---
Pause with Only Singing
Outro(both guitars)
e----------------------------------------------------------------------------
b----------------------------------------------------------------------------
g----------------------------------------------------------------------------
d---4>---7>----2>----7>----2>----4>----7>----2>----4>-----7~ ----2~ ----7~ --
a---4>---7>----2>----7>----2>----4>----7>----2>----4>-----7~ ----2~ ----7~ --
e---2>---5>----0>----5>----0>----2>----5>----0>----2>-----5~ ----0~ ----5~ --

If you have any question, comments, or corrections, e-mail me at [email protected],
and Fall Out Boy ROCKS!!!!




Ваше мнение



Капча