#----------------------------------PLEASE NOTE---------------------------------#
#This file is the author's own work and represents their interpretation of the #
#song. You may only use this file for private study, scholarship, or research. #
#------------------------------------------------------------------------------##
Date: Mon, 27 Nov 1995 14:23:11 +0100 (MET)
From: [email protected]
Subject: TAB:What_a_day GROUP:Faith_No_More
Song: What a day
Written by Faith No More
Transcribed by: Andrea Brigo ([email protected])
1st Part:
e|---------------------------------------------------------------------------
B|---------------------------------------------------------------------------
G|---------------------------------------------------------------------------
D|---------------------------------------------------------------------------
A|-4--5-4--5-4--5-4-1-4------------------------------------------------------
E|-2--3-2--3-2--3-2-0-3------------------------------------------------------
Start the bass part
2nd part(Mike start singing):
e|---------------------------------------------------------------------------
B|---------------------------------------------------------------------------
G|---------------------------------------------------------------------------
D|---------------------------------------------------------------------------
A|-----1-1------1-1------1-1------1-1------1-1------1-1------1-1------1-1----
E|-0-0-0-0--0-0-0-0--0-0-0-0--0-0-0-0--0-0-0-0--0-0-0-0--0-0-0-0--0-0-0-0----
P.M.-| P.M.-| P.M.-| P.M.-| P.M.-| P.M.-| P.M.-| P.M.-|
Repeat 1st part
Repeat 2nd part
Repeat 1st part (4 times)
3rd Part:
Here there are 2 guitars
1st guitar:
e|---------------------------------------------------------------------------
B|---------------------------------------------------------------------------
G|---------------------------------------------------------------------------
D|---6---6---6---6---6---4---4---4---4---4-----------------------------------
A|---------------------------------------------------------------------------
E|-4---4---4---4---4---2---2---2---2---2-------------------------------------
2nd guitar:
e|---------------------------------------------------------------------------
B|---------------------------------------------------------------------------
G|---------------------------------------------------------------------------
D|---------------------------------------------------------------------------
A|-4-------2-------4-------2-------------------------------------------------
E|---0-3-2---0-3-2---0-3-2---0-3-2-------------------------------------------
Then the 1st guitar do this:
e|---------------------------------------------------------------------------
B|---------------------------------------------------------------------------
G|---------------------------------------------------------------------------
D|-6-6-6-6-6-6-6-6-6-6-6-6-6-6-6-6--4-4-4-4-4-4-4-4-4-4-4-4-4-4-4-4----------
A|-4-4-4-4-4-4-4-4-4-4-4-4-4-4-4-4--2-2-2-2-2-2-2-2-2-2-2-2-2-2-2-2----------
E|---------------------------------------------------------------------------
And the 2nd guitar repeat his 3rd part.
Repeat 2nd part
Repeat 3rd part
e|---------------------------------------------------------------------------
B|---------------------------------------------------------------------------
G|---------------------------------------------------------------------------
D|-----6-----6-----6-----6-----6-----4-----4-----4-----4-----4---------------
A|---------------------------------------------------------------------------
E|-4-4---4-4---4-4---4-4---4-4---2-2---2-2---2-2---2-2---2-2-----------------
Repeat this 2 times
The 2nd guitar do again his 3rd part
END!!

For informations or corrections send a mail to: [email protected]
Enjoy yourself!!!!!




Ваше мнение



Капча