We Care A Lot
by Faith No More
From the album We Care A Lot
(C) 1985 Big Thrilling Music/Faith No More Music (ASCAP)
transcribed by Joe White

e e e e e e q e 7x e e e e s s e s s e e s s e s s e s s e e
-----||----r-r----------||---r-r---------------|-----------------------|
4:---||*---e-e---------*||---e-e---------------|-----------------------|
4:---||*---s-s---------*||---s-s---------------|---5h7---5h7---5h7-----|
---0-||--0-t-t-0-0-0-0--||-0-t-t-0-0-0-3-0-0-3-|-0-----0-----0-----0-0-|

e e e e e q e 7x e e e e s s e s s e e e e e e q e 7x
||----r-r----------||---r-r---------------||----r-r----------||
||*---e-e---------*||---e-e---------------||*---e-e---------*||
||*---s-s---------*||---s-s---------------||*---s-s---------*||
||--0-t-t-0-0-0-0--||-0-t-t-0-0-0-3-0-0-3-||--0-t-t-0-0-0-0--||
1st verse

e e e e s s e s s e e s s e s s e s s e e Q e e e e e Q e e e e e
|---r-r---------------|-----------------------|-------------|-------------|
|---e-e---------------|-----------------------|-------------|-------------|
|---s-s---------------|---5h7---5h7---5h7-----|-----7-7-7---|-0-0-5-5-5-5-|
|-0-t-t-0-0-0-3-0-0-3-|-0-----0-----0-----0-0-|-0-0-------0-|-------------|

Q e e e e e Q e e e e e q e e e e e e Q e e e e e Q e e e e e
|-------------|-------------|---------------|-------------|-------------|
|-------------|-------------|---------------|-------------|-------------|
|-----7-7-7---|-0-0-5-5-5-5-|-------9-7-5---|-0-0-5-5-5-5-|-----7-7-7---|
|-0-0-------0-|-------------|-0-0-0-------0-|-------------|-0-0-------0-|

e e e e e e e e e e e e e q e 7x e e e e e e e e e e e e e q e 7x
|-----------------||----r-r----------||---r-r-----------||----r-r----------||
|-----------------||*---e-e---------*||---e-e-----------||*---e-e---------*||
|-0-0-0-0-0-0-0-0-||*---s-s---------*||---s-s-----------||*---s-s---------*||
|-----------------||--0-t-t-0-0-0-0--||-0-t-t-0-0-3-0-3-||--0-t-t-0-0-0-0--||
2nd verse

e e e e s s e s s e e s s e s s e s s e e Q e e e e e Q e e e e e
|---r-r---------------|-----------------------||--------------|-------------|
|---e-e---------------|-----------------------||*-------------|-------------|
|---s-s---------------|---5h7---5h7---5h7-----||*-----7-7-7---|-0-0-5-5-5-5-|
|-0-t-t-0-0-0-3-0-0-3-|-0-----0-----0-----0-0-||--0-0-------0-|-------------|
Chorus

Q e e e e e Q e e e e e q e e e e e e Q e e e e e Q e e e e e
|-------------|-------------|---------------|-------------|-------------|
|-------------|-------------|---------------|-------------|-------------|
|-----7-7-7---|-0-0-5-5-5-5-|-------9-7-5---|-0-0-5-5-5-5-|-----7-7-7---|
|-0-0-------0-|-------------|-0-0-0-------0-|-------------|-0-0-------0-|

e e e e e e e e 2x e e e e e q e 6x e s s e e e s s e e
|------------------||----r-r----------||---------------------|
|-----------------*||*---e-e---------*||---------------------|
|-0-0-0-0-0-0-0-0-*||*---s-s---------*||-----7---------7-----|
|------------------||--0-t-t-0-0-0-0--||-0-0---0-0-0-0---0-0-|
3rd verse

e s s e e e s s e s s e e e e e e q e 7x e e e e s s e s s e
|-------------------------||----r-r----------||---r-r---------------|
|-------------------------||*---e-e---------*||---e-e---------------|
|-----7-------------------||*---s-s---------*||---s-s---------------|
|-0-0---0-0-0-0-0-3-0-0-3-||--0-t-t-0-0-0-0--||-0-t-t-0-0-0-3-0-0-3-|
4th verse

e s s e s s e s s e e Q e e e e e Q e e e e e Q e e e e e
|-----------------------||--------------|-------------|-------------|
|-----------------------||*-------------|-------------|-------------|
|---5h7---5h7---5h7-----||*-----7-7-7---|-0-0-5-5-5-5-|-----7-7-7---|
|-0-----0-----0-----0-0-||--0-0-------0-|-------------|-0-0-------0-|
Chorus

Q e e e e e q e e e e e e Q e e e e e Q e e e e e e e e e e e e e 3x
|-------------|---------------|-------------|-------------|------------------||
|-------------|---------------|-------------|-------------|-----------------*||
|-0-0-5-5-5-5-|-------9-7-5---|-0-0-5-5-5-5-|-----7-7-7---|-0-0-0-0-0-0-0-0-*||
|-------------|-0-0-0-------0-|-------------|-0-0-------0-|------------------||

e s s e s s e s s e e q q h
|-----------------------|---r-r-||
|-----------------------|---e-e-||
|---5h7---5h7---5h7-----|---s-s-||
|-0-----0-----0-----0-0-|-0-t-t-||




Ваше мнение



Капча