The Morning After
by Faith No More
From the album The Real Thing
(C) 1989 Big Thrilling Music/Vomit God Music (ASCAP)
transcribed by Steve Gorenburg
re-tabbed by Joe White

e e h e e e e h e s s e e h e e e e s s e s s e s s q e h e e
-----|---r---r---|---r---------|---r---r---|---x-x-16-x-x-16-x-x-16|---r---r---
4:---|---e---e---|---e---------|---e---e---|---x-x-14-x-x-14-x-x-14|---e---e---
4:---|---s---s---|---s---7-7---|---s---s---|------------------------|---s---s---
---0-|-0-t-0-t-0-|-0-t-0-----0-|-0-t-0-t-0-|-0----------------------|-0-t-0-t---
Intro

e e h e s s e e h e e e e q e e e q e h e e e e h e s s e 3x e h
--|---r---------|---r---r---|---r-----r---||----r---r---|---r----------||---r---
--|---e---------|---e---e---|---e-----e---||*---e---e---|---e---------*||---e---
--|---s---7-7---|---s---s---|---s-5-7-s-7||*---s---s---|---s---7-7---*||---s---
0-|-0-t-0-----0-|-0-t-0-t-0-|-0-t-----t---||--0-t-0-t-0-|-0-t-0-----0--||-0-t---

e e e e q e e Q e h e e e e h e s s e 3x e h e e e e q e e e s E
--r---|---r-----r-||----r---r---|---r----------||---r---r---|---r-----r-----|---
--e---|---e-----e-||*---e---e---|---e---------*||---e---e---|---e-----e-----|---
--s---|---s-5-7-s-||*---s---s---|---s---7-7---*||---s---s---|---s-5-7-s-----|---
0-t-0-|-0-t-----t-||--0-t-0-t-0-|-0-t-0-----0--||-0-t-0-t-0-|-0-t-----t-5-5-|---
1st Verse

e e e e h e e e e q e e e e e e e e e e e e e e e e s E e e e e h e
------r-r-|-------r-r-----|-----r---r---r---|-r---r---r-------|-------r-r-|-----
------e-e-|-------e-e-----|-----e---e---e---|-e---e---e-------|-------e-e-|-----
------s-s-|-------s-s-----|-----s---s---s---|-s---s---s-------|-------s-s-|-----
7-7-7-t-t-|-5-7-7-t-t-5-7-|-0-0-t-0-t-0-t-0-|-t-0-t-0-t-0-5-5-|-7-7-7-t-t-|-5---

e e q e e e e e e e e e e e e e e s s e s s q e h e e e e h e s s
----r-------|-r---r---r---r---|-----r-x-x-16-x-x-16||----r---r---|---r---------
----e-------|-e---e---e---e---|-----e-x-x-14-x-x-14||*---e---e---|---e---------
----s-------|-s---s---s---s---|-----s---------------||*---s---s---|---s---7-7---
7-7-t-7-5-7-|-t-0-t-0-t-0-t-0-|-0-0-t---------------||--0-t-0-t-0-|-0-t-0-------

e 3x e h e e e e q e e Q e h e e e e h e s s e 3x e h e e e e q e
---||---r---r---|---r-----r-||----r---r---|---r----------||---r---r---|---r-----
--*||---e---e---|---e-----e-||*---e---e---|---e---------*||---e---e---|---e-----
--*||---s---s---|---s-5-7-s-||*---s---s---|---s---7-7---*||---s---s---|---s-5---
0--||-0-t-0-t-0-|-0-t-----t-||--0-t-0-t-0-|-0-t-0-----0--||-0-t-0-t-0-|-0-t-----
2nd Verse

e e s E e e e e e e s s e e e e e e e s s 6x e e e s s e s s q
--r-----|-----------------||---------------------||-------x-x-11-x-x-11-||------
--e-----|-------------7-8-||*-9-------------7-8-*||-9-----x-x-9--x-x-9--||*-----
7-s-----|-----------------||*-------------------*||---------------------||*-----
--t-5-5-|-7-7-7-7-7-7-----||----7-7-7-7-7-7------||---7-7---------------||------
Pre-chorus

e e q e e q e e q e e q e e q e e q e e q e e q 2x e H e e H e w
------------|-------------|-------------|---------r----||---r---|---r---|---|---

------------|-------------|-------------|---------e---*||---e---|---e---|---|---
----3-----2-|-----5-----7-|-----3-----2-|-----5-7-s-7*||---s---|---s---|-7-|---
0-0---0-0---|-0-0---0-0---|-0-0---0-0---|-0-0-----t----||-0-t-0-|-0-t-0-|---|---
Chorus

H q Q e+h Q e+h Q e+h Q e+h Q e+h Q e+h Q e+h Q Q q
r---|-------|-------|-------|-------|-------|-------|-------|--------||---------
e---|-------|-------|-------|-------|-------|-------|-------|--------||*--------
s-7|-3-2-2-|-------|-3-2-2-|-5-7-7-|-3-2-2-|-------|-3-2-2-|-5-7/17||*--------
t---|-------|-3-0-0-|-------|-------|-------|-3-0-0-|-------|--------||---------

e e e e e e e e 7x e e e e e e s E e e e e h e e e e q e e e e e e e
-----------------||-----------r-----||--------r-r-|-------r-r-----|-----r---r---
----------------*||-----------e-----||*-------e-e-|-------e-e-----|-----e---e---
----------------*||-------5-7-s-----||*-------s-s-|-------s-s-----|-----s---s---
0-0-0-0-0-0-0-0--||-0-0-0-----t-5-5-||--7-7-7-t-t-|-5-7-7-t-t-5-7-|-0-0-t-0-t---
Bridge

e e e e e e e e e s E 2x e e e e h e e e e h q q q q q q q q e e e
--r---|-r---r---r--------||-------r-r-|-------r-r-|---r---r-|---r---r-|---------
--e---|-e---e---e-------*||-------e-e-|-------e-e-|---e---e-|---e---e-|---------
--s---|-s---s---s-------*||-------s-s-|-------s-s-|---s---s-|---s---s-|---------
0-t-0-|-t-0-t-0-t-0-5-5--||-7-7-7-t-t-|-5-7-7-t-t-|-0-t-2-t-|-3-t-5-t-|-7-7-7---

e h e e e q e e e e e e e e e e e e e e s s e s s q e e q e e q e
r-r-|-------r-------|-r---r---r---r---|-----r-x-x-16-x-x-16|-------------|-----
e-e-|-------e-------|-e---e---e---e---|-----e-x-x-14-x-x-14|-------------|-----
s-s-|-------s-------|-s---s---s---s---|-----s---------------|-----3-----2-|-----
t-t-|-5-7-7-t-7-5-7-|-t-0-t-0-t-0-t-0-|-0-0-t---------------|-0-0---0-0---|-0---
Chorus

e q e e q e e q e e q e e q e e q e e q e e q e e q e e q e e q e e
----------|-------------|---------r---|-------------|-------------|-------------
----------|-------------|---------e---|-------------|-------------|-------------
--5-----7-|-----3-----2-|-----5-7-s-7|-----3-----2-|-----5-----7-|-----3-------
0---0-0---|-0-0---0-0---|-0-0-----t---|-0-0---0-0---|-0-0---0-0---|-0-0---0-0---

q e e q e e q e e e e e e s s e e e e e e e s s 6x e e e s s e s s
--|---------r---|-----------------||---------------------||-------x-x-11-x-x----
--|---------e---|-------------7-8-||*-9-------------7-8-*||-9-----x-x-9--x-x----
2-|-----5-7-s---|-----------------||*-------------------*||---------------------
--|-0-0-----t-5-|-7-7-7-7-7-7-----||----7-7-7-7-7-7------||---7-7---------------

q e s s e s s e s s e s s 4x e s s e s s e s s e s s 3x e
11-||--11-x-x-11-x-x-12-x-x-12-x-x--||-||--11-x-x-12-x-x-11-x-x-12-x-x--||-11---
9--||*-9--x-x-9--x-x-10-x-x-10-x-x-*||-||*-9--x-x-10-x-x-9--x-x-10-x-x-*||-9----
---||*-----------------------------*||-||*-----------------------------*||------
---||-------------------------------||-||-------------------------------||------
Outro

s s e s s e s s q w w
x-x-12-x-x-11-x-x-12-|---|---||
x-x-10-x-x-9--x-x-10-|---|---||
---------------------|---|---||
---------------------|-0-|-0-||




Ваше мнение



Капча