* Desert Music Vol. 1 - http://listen.to/desertmusic *
* *
* DISCLAIMER: Transcribed by a human - may not be 100% accurate. *
* Send any suggestions, corrections, feedback to [email protected] *
Faith No More - The Last To Know
Tuning - E A D G B E
[00:01]
|------0----------2----2----2----------------------------------------------|
|--------0--------2------2--2----------------------------------------------|
|-1--1------1-->--3--3------3------1----------1----------------------------|
|-2---------2-->--4---------4------2----------2----------------------------|
|-2---------2-->--4---------4------2----------2----------------------------|
|-0---------0--h--2---------2--0-0-0--0-0-0-0-0----------------------------|
palm mute . . . . . .
|------0-------------------------------------------------------------------|
|--------0---------11---------9--------------------------------------------|
|-1--1------9->-11-11-11->-9--9--------------------------------------------|
|-2---------9->-11----11->-9--9--9-9-9--9---9-9-9--------------------------|
|-2---------7->--9-----9->-7--7--9-9-9--9-p-7-7-7--------------------------|
|-0---------7->--9-----9->-7--7--7-7-7--7---7-7-7--------------------------|
[00:33]
x4 * 'sweep' this chord, top to bottom
|-----------------|----------2---------------------------------------------|
|-----------------|----------2---------------------------------------------|
|-7-7-7-7-7-7-7-7-|-5--7--9--3---------------------------------------------|
|-7-7-7-7-7-7-7-7-|-x--x--x--4---4---4---4---4-----------------------------|
|-5-5-5-5-5-5-5-5-|-3--5--7--4---4---4---4---4-----------------------------|
|-----------------|----------2---2-0-2---2-0-2--12 >-----------------------|
palm mute . . . .

[01:20]
x4 * 'sweep' this chord, top to bottom
|-----------------|----------2---------------------------------------------|
|-----------------|----------2---------------------------------------------|
|-7-7-7-7-7-7-7-7-|-5--7--9--3---------------------------------------------|
|-7-7-7-7-7-7-7-7-|-x--x--x--4---4---4---4---4--4--5--6--------------------|
|-5-5-5-5-5-5-5-5-|-3--5--7--4---4---4---4---4--4--5--6--------------------|
|-----------------|----------2---2-0-2---2-0-2--2--3--4--------------------|
palm mute . . . . . . .

|--------------------------------------------------------------------------|
|--------------------------------------------------------------------------|
|--------------------------------------------------------------------------|
|-7------7------7------7-------6------6------6------6----------------------|
|-7------7------7------7-------6------6------6------6----------------------|
|-5--5-5-5--5-5-5--5-5-5--5-5--4--4-4-4--4-4-4--4-4-4--4-4-----------------|
pm . . . . . . . . . . . . . . . .
|--------------------------------------------------------------------------|
|--------------------------------------------------------------------------|
|--------------------------------------------------------------------------|
|-6------6------6------6--------7--8---------------------------------------|
|-6------6------6------6--------7--8---------------------------------------|
|-4--4-4-4--4-4-4--4-4-4--4-4---5--6---------------------------------------|
|-------------------------------5--6-------12->-0--------------------------|
pm . . . . . . . .
[01:50]
Rhythm A :
|-----------------------------------------------------|
|-----------------------------------------------------|
|-----------------------------------------------------|
|-----------------5b----------------5-x-5~~~----------|
|-------7-------5-----------7-----5-------------------|
|-0--0----0-0-6------0-0-0----0-6---------------------|
|-----------------------------------------------------|
|-----------------------------------------------------|
|-----------------------------------------------------|
|---------------5b------------------------------------|
|-------7-----5-----------7--5------------4-----4->-5-|
|-0--0----0-6------0-0-0-------7-6--7p0---2--x--2->-3-|
|-----------------------------------------------------|
|-----------------------------------------------------|
|-----------------------------------------------------|
|-----------------5b----------------5-x-5~~~----------|
|-------7-------5-----------7-----5-------------------|
|-0--0----0-0-6------0-0-0----0-6---------------------|
|-----------------------------------------------------|
|-----------------------------------------------------|
|-----------------------------------------------------|
|-----------------5b------------------------6---------|
|-------7-------5-----------7--5------------4---------|
|-0--0----0-0-6------0-0-0--------7--6h7-0--4---------|
: Rhythm A end
[02:20]
x4 * 'sweep' this chord, top to bottom
|-----------------|----------2---------------------------------------------|
|-----------------|----------2---------------------------------------------|
|-7-7-7-7-7-7-7-7-|-5--7--9--3---------------------------------------------|
|-7-7-7-7-7-7-7-7-|-x--x--x--4---4---4---4---4--4--5--6--------------------|
|-5-5-5-5-5-5-5-5-|-3--5--7--4---4---4---4---4--4--5--6--------------------|
|-----------------|----------2---2-0-2---2-0-2--2--3--4--------------------|
palm mute . . . . . . .
|--------------------------------------------------------------------------|
|--------------------------------------------------------------------------|
|--------------------------------------------------------------------------|
|-7------7------7------7-------6------6------6------6----------------------|
|-7------7------7------7-------6------6------6------6----------------------|
|-5--5-5-5--5-5-5--5-5-5--5-5--4--4-4-4--4-4-4--4-4-4--4-4-----------------|
pm . . . . . . . . . . . . . . . .
|--------------------------------------------------------------------------|
|--------------------------------------------------------------------------|
|--------------------------------------------------------------------------|
|-6------6------6------6---------------------------------------------------|
|-6------6------6------6--------5------5------5------5---------------------|
|-4--4-4-4--4-4-4--4-4-4--4-4---5------5------5------5---------------------|
|-------------------------------3--3-3-3--3-3-3--3-3-3--3-3----------------|
pm . . . . . . . . . . . . . . . .
|--------------------------------------------------------------------------|
|--------------------------------------------------------------------------|
|--------------------------------------------------------------------------|
|-7------7------7------7-------6------6------6------6----------------------|
|-7------7------7------7-------6------6------6------6----------------------|
|-5--5-5-5--5-5-5--5-5-5--5-5--4--4-4-4--4-4-4--4-4-4--4-4-----------------|
pm . . . . . . . . . . . . . . . .
|--------------------------------------------------------------------------|
|--------------------------------------------------------------------------|
|--------------------------------------------------------------------------|
|-6------6------6------6--------7--8---------------------------------------|
|-6------6------6------6--------7--8---------------------------------------|
|-4--4-4-4--4-4-4--4-4-4--4-4---5--6---------------------------------------|
|-------------------------------5--6---------------------------------------|
pm . . . . . . . .
Solo - Guitar 2 (Guitar 1 plays Rhythm A)
|--------------------------------------------------------------------------|
|--------------------------------------------------------------------------|
|--------------------------------------------------------------------------|
|--------------------------------------------------------------------------|
|------9h11~~--9~~>---5p4---5-----------------9h11-7-7--7-7-7h9-5-4--------|
|-12>---------------------7---4-4>7~~--7>-0-------------------------7------|
|--------------------------------------------------------------------------|
|--------------------------------------------------------------------------|
|--------------------------------------------------------------------------|
|----------------------------------------------9~~----------------12~~-----|
|---------------2-----2-----7~~--9h11-9~~-9h11-----9h11-9~~--9h11----------|
|-7-7--7-7--2h4---2h4---0--------------------------------------------------|
|--------------------------------------------------------------------------|
|--------------------------------------------------------------------------|
|--------------------13~~-11-----------------------------------------------|
|--------------11h12---------12~~-12~~--12h14--11--9h11p9>8--8h9h11>-------|
|-9h11-11-9h11-------------------------------------------------------------|
|---------------------------------------------------------------------0----|
|--------------------------------------------------------------------------|
|--------------------------------------------------------------------------|
|--------------------------------------------------------------------------|
|--------------------------------------------------------------------------|
|--------------------------------------------------------------------------|
|-12>-0-12>-0--12>-0-12>-0--0-0--------------------------------------------|
|--------------------------------------------------------------------------|
|--------------------------------------------------------------------------|
|-11---13---16->-13--15->-11--6->-4--4-4-4-4--4->-6--6-6-6-6->-7--3-3-3----|
|--x----x----x----x---x----x--x---x--x-x-x-x--x---x--x-x-x-x---x--x-x-x----|
|--9---11---14->-11--13->--9--4->-2--2-2-2-2--2->-4--4-4-4-4->-5--1-1-1----|
|-----------------------------------------------------------------------4--|
*------pick rapidly--------*
|------------------------------------16b-18b-18b-18b-18b-16b---------------|
|----------------------15b--17b--19b---------------------------------------|
|-15b-15b-15b-15b-15b------------------------------------------------------|
|--------------------------------------------------------------------------|
|--------------------------------------------------------------------------|
|--------------------------------------------------------------------------|
|--------------------------------------------------------------------------|
|--------------------------------------------------------------------------|
|--------------------------------------------------------------------------|
|-12h14--14-14-14--12-12->-11--11->-9-9->-8-8->-6-6-6----------------------|
|--------------------------------------------------------------------------|
|--------------------------------------------------------------------------|
|--------------------------------------------------------------------------|
|--------------------------------------------------------------------------|
|-9->-11--6->-9-9-9-9--6--6->-4--4-----------------------------------------|
|-x----x--x---x-x-x-x--x--x---x--x--6--6->-4--4-p-0--2---------------------|
|-7->--9--4->-7-7-7-7--4--4->-2--2--4--4->-2--2-p-0--2---------------------|
|-----------------------------------4--4->-2--2-p-0--0---------------------|
Tablature Key:
|------------- hammer on to 3 |-------------
|--2h3p2------ then pull off |---x-x------- muffled string
|------------- back to 2 |---x-x-------
|------------- pluck 5 then |-------------
|--5b7r5------ bend up until |------------- palm muting
|------------- pitch is equal |-------------
to 7, release to 5 pm..........
|------------- slide along string in |------------- slide to second
|------4s->--- direction of arrow |---5-s-7----- note from first
|------------- |-------------
|-------------
|------5~~~~~- string vibrato
|-------------




Ваше мнение



Капча