Faith No More - The Gentle Art Of Making Enemies
Submitted By: Sqweeky
EMail: [email protected]
Transcribed by : Joffe ([email protected])
Intro (1)
G ---------------------------------------------------------------------
D ---------------------------------------------------------------------
A -----------------------0-3--x-3----------------------0-3--x-3--------
E -2--2-2-2-2-2-2-2--0-2----------0--0-0-0-0-0-0-0-0-2-----------------
Intro (2)
G ---------------------------------------------------------------------
D ---------------------------------------------------------------------
A -----------------------0-3--x-3--------------------------------------
E -2--2-2-2-2-2-2-2--0-2----------0-0-0-0-0----------------------------
Pre-verse
G ------------------------------------------------------------
D ------------------------------------------------------------ 4
times
A ------------------------------------------------------------ /
E -0-0-3-0-6-x-6-6-6------------------------------------------ /

Verse
G -----------------------------------------------------------------
D -----------------------------------------------------------------
A -----------------------------------------------------------------
E -2-2-2-2-2-2-2-2-2-2-2-2-2-2-2-2-2-2-2-2-2-2-2-2-2-2-2-2-2-2-2-2-
G -----------------------------------------------------------------
D -----------------------------------------------------------------
A -----------------------------------------------------------------
E -1-1-1-1-1-1-1-1-1-1-1-1-1-1-1-1-2-2-2-2-2-2-2-2-2-2-2-2-3-3-3-3-
G -----------------------------------------------------------------
D -----------------------------------------------------------------
A -----------------------------------------------------------------
E -2-2-2-2-2-2-2-2-2-2-2-2-2-2-2-2-2-2-2-2-2-2-2-2-2-2-2-2-2-2-2-2-
G -----------------------------------------------------------------
D -----------------------------------------------------------------
A -----------------------------------------------------------------
E -1-1-1-1-1-1-1-1-1-1-1-1-1-1-1-1-2-2-2-2-2-2-2-2-2-2-2-2-2-2-2-2-
Chorus
G -----------------------------
D ----------------------------- 4 times
A -----------------0----------- /
E -0--1-2--2-0-1-2---2-1------- /
G ------------------------------------
D ------------------------------------ 3 times
A -----------------------0------------ /
E -2-2-2-2-2-2-2-2-0-1-2---2-1-------- /

G ---------------------------
D ---------------------------
A ---------------------------
E -2-2-2-2-2-2-2-2--2-2-2-5--

G -----------------------------------------------------------------
D -----------------------------------------------------------------
A -2-2-2-2-2-2-2-2-2-2-2-2-0-0-0-0---------------------------------
E ---------------------------------3-3-3-3-3-3-3-3-3-3-3-3-3-3-3-3-
2
times
G ----------------------------------------------------------------- /
D ----------------------------------------------------------------- /
A ---------------------------1-----------------------1------------- /
E -r-r-0-0-0-0-0-0-0-0-0-0-0---0-0-0-0-0-0-0-0-0-0-0--------------- /
OK.. Here's a basic layout of the song:
Intro (1)
Intro (2)
Pre-verse
Verse
Chorus
Verse
Chorus
Intro (1) 7 times
Intro (2) 1 time
I hope this helps you guys out.. It's pretty accurate..




Ваше мнение



Капча