Surprise! You're Dead!
by Faith No More
From the album The Real Thing
(C) 1989 Big Thrilling Music/Vomit God Music (ASCAP)
transcribed by Steve Gorenburg
re-tabbed by Joe White

e w w e q e q e q e q e e e e q e e e e q e e e e e e
----r-|-r-|----r-|-------r---r---r---r-|---------r---------r-||-----------------
12:-e-|-e-|-6:-e-|-12:---e---e---e---e-|---------e---------e-||*----------------
8-:-s-|-s-|-8:-s-|-8-:---s---s---s---s-|---------s---------s-||*-2-----1---3----
----t-|-t-|----t-|-----0-t-0-t-0-t-0-t-|-2-2-2-2-t-3-3-3-3-t-||----0-0---0------
Intro

e e e e e e 3x e e e e e e e e e e e e e e e e e e e e e
-------------||-----------------r---r---||--------------------------------------
------2-----*||-----------------e---e---||*-------------------------------------
2-----------*||-2-----1---3-2-1-s-1-s-1-||*-2-----1---3-2-----------------------
--0-0---0-0--||---0-0---0-------t---t---||----0-0---0-----0-0-------------------

e e e 3x e e e e e e e e e e e e e e e e e e e e e e e e e e e e e e e
---------||-------------------------|-------------------------||----------------
--2-----*||-------------------------|-------------------2-----||*---------------
--------*||-------3-5-5-------5-6-6-|-7-----1---3-2-----------||*-2-----1---3-2-
-(0)0-0--||-3-5-5-------5-7-7-------|---0-0---0-----0-0---0-0-||----0-0---0-----
Play low E 1st Verse
3rd time only

e e e e e 2x e e e e e e e e e e e e e e e e e e e e e e e e 3x e e e e
-----------||-----------------r---r---||---------------------------||-----------
----2-----*||-----------------e---e---||*-------------------2-----*||-----------
----------*||-2-----1---3-2-1-s-1-s-1-||*-2-----1---3-2-----------*||-------3---
0-0---0-0--||---0-0---0-------t---t---||----0-0---0-----0-0---0-0--||-3-5-5-----

e e e e e e e e e e e e e q e e e e e e e e e e e e e e e e e
----------------|----||-------------------|-----------------|-------------------
----------------|-4:-||*------------------|-----------------|-------------------
5-5-------5-6-6-|-4:-||*-7-----7---7~~~---|-8-----8---5---7-|-----7-----7-------
----5-7-7-------|----||----0-0---0------0-|---0-0---0---0---|-0-0---0-0---0-0---
Chorus

e e e e e q e 4x e e e e e e e e e e e e 3x e e e e e e e e e e e
|----------------||-----||---------------------------||-----------------r---r---
|---------------*||-12:-||*-------------------2-----*||-----------------e---e---
|-8-----8---8-8-*||-8-:-||*-2-----1---3-2-----------*||-2-----1---3-2-1-s-1-s---
|---0-0---0------||-----||----0-0---0-----0-0---0-0--||---0-0---0-------t---t---
2nd Verse

e e e e e e e e e e e e e 3x e e e e e e e e e e e e e e e e e
--||---------------------------||-------------------------|----||---------------
--||*-------------------2-----*||-------------------------|-4:-||*--------------
1-||*-2-----1---3-2-----------*||-------3-5-5-------5-6-6-|-4:-||*-7-----7------
--||----0-0---0-----0-0---0-0--||-3-5-5-------5-7-7-------|----||----0-0---0----
Chorus

q e e e e e e e e e e e e e e e e e e e e e e q e 4x e s s e s s
-------|-----------------|-----------------|----------------||------------------
-------|-----------------|-----------------|---------------*||-6:---------------
7~~~---|-8-----8---5---7-|-----7-----7-----|-8-----8---8-8-*||-4:-0-0-0-0-0-0---
-----0-|---0-0---0---0---|-0-0---0-0---0-0-|---0-0---0------||------------------
Interlude

e s s e s s e e e e e s s e s s e s s e e e e e e e s s e s s e s s
--------------------||--------------------------------|-------------------------
--------------3-2-5-||*-4-------------------3-2-5-4-7-|-5:-6--------------------
0-0-0-0-0-0-0-------||*---0-0-0-0-0-0-0-0-0-----------|-4:---0-0-0-0-0-0-0-0----
--------------------||--------------------------------|-------------------------

e e e e 3x e s s e s s e s s e e e e e e q e e e e q e e e e
------------||------------------------------------|----------r---|----------r---
--3-2-5-6:-*||-7:-4-------------------3-2-5-4-7-6|-3:-------e---|-4:-------e---
0-------4:-*||-4:---0-0-0-0-0-0-0-0-0-------------|-4:-----2-s-3-|-4:-----2-s---
------------||------------------------------------|----0-0---t---|----0-0---t---

q e e e e e e q e e e e q e e q e e e e q e e e e e e e e
------|----------r---|----------r-----r---|--------------|----------r---r-------
------|-3:-------e---|-5:-------e-----e---|-3:-----------|-4:-------e---e-4-3---
3-6-5-|-4:-----2-s-3-|-4:-----2-s-3-6-s-5-|-4:-----5---6-|-4:-----5-s-6-s-------
------|----0-0---t---|----0-0---t-----t---|----3-3---3---|----3-3---t---t-------

e e e e q e e e e e e e e e e e e q e e e e e e e e e e
|--------------|----------r---r---r-|---------------|-----------------|---------
|-3:-----------|-4:-------e---e-6-e-|-5---5---7-----|-----------------|-12:-----
|-4:-----7---8-|-4:-----7-s-8-s---s-|---7---6---5-6-|-6-2-1-0---------|-8-:-----
|----5-5---5---|----5-5---t---t---t-|---------------|---------4-3-2-1-|---------

e e e e e e e e e e e e 3x e e e e e e e e e e e e e e e e e e e e e
||---------------------------||-----------------r---r---||----------------------
||*-------------------2-----*||-----------------e---e---||*---------------------
||*-2-----1---3-2-----------*||-2-----1---3-2-1-s-1-s-1-||*-2-----1---3-2-------
||----0-0---0-----0-0---0-0--||---0-0---0-------t---t---||----0-0---0-----0-0---
3rd Verse

e e e 3x e e e e e e e e e e e e e e e e e e e e e e e e 2x Q Q H w
-------||-------------------------||---------------------------||---r-r-|-r-||--
2-----*||-------------------------||*-------------------------*||---e-e-|-e-||--
------*||-------3-5-5-------5-6-6-||*-------3-5-5-------5-6-6-*||-7s-s-|-s-||--
--0-0--||-3-5-5-------5-7-7-------||--3-5-5-------5-7-7--------||---t-t-|-t-||--
Outro




Ваше мнение



Капча