Stripsearch
by Faith No More
From the album Album Of The Year
(C) 1997 FNM Music (ASCAP)
transcribed by Joe White

w 8x s s e s e E e q e s s s e E e e e s s e s e E q e
---||--r--||-----------------|---------------r---|---------------r-|
4:-||--e--||-----------------|---------------e---|---------------e-|
4:-||*-s-*||-7-5---7-5-5-7-7-|---7-5-7-5-5-7-s-0-|-2-0-2-2-0-0-2s-|
---||*-t-*||-----0-----------|-0-------------t---|---------------t-|
---||-----||-----------------|-------------------|-----------------|

e s s s e E e s e s s s e s e E e s s e e s s s e E e s s e
|---------------r-----|-------------------r-|---------------------|
|---------------e-----|-------------------e-|---------------------|
|---2-0-2-0-0-2-s-2-5-|-7-5---7-5-5-7-7---s-|---7-5-7-5-5-7-0-0-0-|
|---------------t-----|-----0-----------0-t-|-0-------------------|
|-0-------------------|---------------------|---------------------|
1st Verse

s s e s e E e s E e s s s e E e q s s s s s e E e s E e s s s s s E e q
|---------------r---|---------------r-|---------------------|-----------------r-|
|---------------e---|---------------e-|---------------------|-------5-4-------e-|
|-2-0-2-2-0-0-2s---|---2-0-2-0-0-2-s-|-----7-5-7-5-5-7-7---|---7-5-----7-5-7-s-|
|---------------t---|---------------t-|-0-0---------------0-|-0---------------t-|
|-----------------0-|-0---------------|---------------------|-------------------|

s s e s e E e s E e s s s e E e s e s s s e s e s s s s E
|---------------r---|---------------r-----|---------------------|
|---------------e---|---------------e-----|---------------------|
|-2-0-2-2-0-0-2s---|---2-0-2-0-0-2-s-2-5-|-7-5---7-5-5-5-5-----|
|---------------t---|---------------t-----|-----0-----------5-7-|
|-----------------0-|-0-------------------|---------------------|

e s s s e E e E s s s e s e E e s s e e s s s e E E s e s
|---------------r---|---------------r---r-|---------------r-----|
|---------------e---|---------------e---e-|---------------e-----|
|---7-5-7-5-5-7-s-0-|-2-0-2-2-0-0-2s---s-|---2-0-2-0-0-2-s-2-5-|
|-0-------------t---|---------------t-0-t-|---------------t-----|
|-------------------|---------------------|-0-------------------|

s s e s e s s s s s e e s s s e E e E s s s e s e E E s e
|---------------------r-|---------------r---|-------------------|
|---------------------e-|---------------e---|-------------------|
|-7-5---7-5-5-5-5-----s-|---7-5-7-5-5-7-s-0-|-2-0-2-2-0---------|
|-----0-----------0-0-t-|-0-------------t---|-------------------|
|-----------------------|-------------------|-----------0-0-0-0-|

e s s s e E E s e w 6x s s s s s e E e s s e e s s s s s E e s E
|-------------------||--r--||---------------------r-|-----------------r---|
|-------------------||--e--||---------------------e-|-------5-4-------e---|
|---2-0-2-0---------||*-s-*||-----7-5-7-5-5-7-7---s-|---7-5-----7-5-7-s-0-|
|-------------------||*-t-*||-0-0---------------0-t-|-0---------------t---|
|-0---------0-0-0-0-||-----||-----------------------|---------------------|
Chorus

s s e s e E e s s e e s s s e E E s e s s s e s e s s s s s e
|---------------r---r-|---------------r-----|---------------------r-|
|---------------e---e-|---------------e-----|---------------------e-|
|-2-0-2-2-0-0-2s---s-|---2-0-2-0-0-2-s-2-5-|-7-5---7-5-5-5-5-----s-|
|---------------t-0-t-|---------------t-----|-----0-----------0-0-t-|
|---------------------|-0-------------------|-----------------------|

e s s s s s E e s E s s e s e E e s s e
|---------------------|---------------r---r-|---------------r-----|
|-------5-4-----------|---------------e---e-|---------------e-----|
|---7-5-----7-5-7-0-0-|-2-0-2-2-0-0-2s---s-|---2-0-2-0-0-2-s-2-5-|
|-0-------------------|---------------t-0-t-|---------------t-----|
|---------------------|---------------------|-0-------------------|

s s e s e s s s s s e s s s s s s s E e E s s s e s e E e q
|---------------------r-|-------------------r---|---------------r-|
|---------------------e-|---------5-4-------e---|-----------4---e-|
|-7-5---7-5-5-5-5-----s-|-7-5-7-5-----7-5-7-s-0-|-2-0-2-2-0---2s-|
|-----0-----------0-0-t-|-------------------t---|---------------t-|
|-----------------------|-----------------------|-----------------|
2nd Verse

s s s s s e E e+E s s s e s e s s s s s e e s s s s s E e q
|---------------------|---------------------r-|-----------------r-|
|---------------------|---------------------e-|-------5-4-------e-|
|-2-0-2-0-2-0-2-----5-|-7-5---7-5-5-5-5-----s-|---7-5-----7-5-7-s-|
|---------------------|-----0-----------0-0-t-|-0---------------t-|
|-------------0-0-0---|-----------------------|-------------------|

s s e s e E e s s e e s s s e E e s s s s s s e s e s s s s E
|---------------r---r-|---------------r-------|---------------------|
|---------------e---e-|---------------e-------|---------------------|
|-2-0-2-2-0-0-2s---s-|---2-0-2-0-0-2-s-2-2-5-|-7-5---7-5-5-5-5-----|
|---------------t-0-t-|---------------t-------|-----0-----------5-7-|
|---------------------|-0---------------------|---------------------|

e s s s e E e s E s s e s e E e s E e s s s e E s s+q
|---------------r---|---------------r---|-------------------|
|---------------e---|---------------e---|-------------------|
|---7-5-7-5-5-7-s-0-|-2-0-2-2-0-0-2s---|---2-0-2-0-0-2-----|
|-0-------------t---|---------------t---|-------------------|
|-------------------|-----------------0-|-0-------------0-0-|

s s s s s e s s s s E e s s s e E e s E s s e s e E e s E
|-------------------r---|---------------r---|---------------r---|
|-------------------e---|---------------e---|---------------e---|
|-7-5-7-5-7-5-5-5-5-s---|---7-5-7-5-5-7-s-0-|-2-0-2-2-0-0-2s---|
|-------------------t-0-|-0-------------t---|---------------t---|
|-----------------------|-------------------|-----------------0-|

e s s s e E s s s s e w 4x s s t t s s s e s s t t s s s e 10x w 4x
|-----------------------||--r--||-----------------------------------||--r--||
|-----------------------||--e--||-----------------------------------||--e--||
|---2-0-2-0-0-2---------||*-s-*||*---------------------------------*||*-s-*||
|-----------------------||*-t-*||*---------------------------------*||*-t-*||
|-0-------------0-0-0-0-||-----||--2-2-2-2-2-2-2-2-2-2-2-2-2-2-2-2--||-----||
Chrous Outro




Ваше мнение



Капча