Naked In Front Of The Computer
by Faith No More
From the album Album Of The Year
(C) 1997 FNM Music (ASCAP)
transcribed for guitar by Alan Demafiles ([email protected])
arranged for bass by Joe White

w 3x s s s s s s s s s s s s s s e s s s s s s s s s s s e s e
---||--r--||-r-----------------------------|-----------------------------|
4:-||*-e-*||-e-----------------------------|-----------------------------|
4:-||*-s-*||-s-----------------------------|-----------------------------|
---||--t--||-t-5-5-5-8-8-8-8-4-4-4-7-7-7-7-|-1-1-1-1-2-2-2-2-3-3-3-4-4-5-|
Intro

+s s s s s s s s s s s s s s e s s s s s s s s s s s e s e
|-------------------------------|-----------------------------|
|-------------------------------|-----------------------------|
|-------------------------------|-----------------------------|
|-5-5-5-5-4-4-4-4-3-3-3-2-2-2-0-|-1-1-1-1-2-2-2-2-3-3-3-4-4-5-|

Double Time
+s s s s s s s s s s s s s s e q Q e e e e e e e q e e h e e e e
|-------------------------------|---r-------|-----r---r-----||--r-r-------|
|-------------------------------|---e-------|-----e---e-----||*-e-e-------|
|-------------------------------|---s-------|-0-1-s---s-----||*-s-s-------|
|-5-5-5-5-8-8-8-8-4-4-4-7-7-7-7-|-1-t-4-4-1-|-----t-1-t-1-1-||--t-t-4-4-1-|

e e e e q e e 7x h e Q e e e e e Q 4x e e e e e Q 4x q Q e e e
|-----r---r------||-r-r---||------r---r----||------r---r----||---r-------|
|-----e---e-----*||-e-e---||*-----e---e---*||*-----e---e---*||---e-------|
|-0-1-s---s-----*||-s-s---||*-----s---s---*||*-----s---s---*||---s-------|
|-----t-1-t-1-1--||-t-t-4-||--0-0-t-0-t-2--||--2-2-t-2-t-4--||-1-t-4-4-1-|
Chrous 2nd Verse

e e e e q e e h e e e e e e e e q e e 7x h e Q e e e e e Q 4x
|-----r---r-----||--r-r-------|-----r---r------||-r-r---||------r---r----||
|-----e---e-----||*-e-e-------|-----e---e-----*||-e-e---||*-----e---e---*||
|-0-1-s---s-----||*-s-s-------|-0-1-s---s-----*||-s-s---||*-----s---s---*||
|-----t-1-t-1-1-||--t-t-4-4-1-|-----t-1-t-1-1--||-t-t-4-||--0-0-t-0-t-2--||
Chrous

Half Time
e e e e e Q 4x e e e e e Q 4x e e e e e Q 4x w
||------r---r----||------r---r----||------r---r----||--r--||
||*-----e---e---*||*-----e---e---*||*-----e---e---*||*-e-*||
||*-----s---s---*||*-----s---s---*||*-----s---s---*||*-s-*||
||--2-2-t-2-t-4--||--0-0-t-0-t-2--||--2-2-t-2-t-4--||--t--||
hold Outro

s s s s s s s s s s s s s s e s s s s s s s s s s s e s e
|-r-----------------------------||------------------------------|
|-e-----------------------------||*-----------------------------|
|-s-----------------------------||*-----------------------------|
|-t-5-5-5-8-8-8-8-4-4-4-7-7-7-7-||--1-1-1-1-2-2-2-2-3-3-3-4-4-5-|

+s s s s s s s s s s s s s s e s s s s s s s s s s s e s e
|-------------------------------|-----------------------------|
|-------------------------------|-----------------------------|
|-------------------------------|-----------------------------|
|-5-5-5-5-4-4-4-4-3-3-3-2-2-2-0-|-1-1-1-1-2-2-2-2-3-3-3-4-4-5-|

+s s s s s s s s s s s s s s e 2x q H
|--------------------------------||---r-||
|-------------------------------*||---e-||
|-------------------------------*||---s-||
|-5-5-5-5-8-8-8-8-4-4-4-7-7-7-7--||-1-t-||




Ваше мнение



Капча