Mouth to Mouth
by Faith No More
From the album Album Of The Year
(C) 1997 FNM Music (ASCAP)
transcribed by Joe White

w 8x e e e e e e e e 7x e e e e e e e e e e e e e e e e 7x
---||--r--||-||------r-----r---r--||-----r-----------||------r-----r---r--||----
4:-||*-e-*||-||*-----e-----e---e-*||-----e-----------||*-----e-----e---e-*||----
4:-||*-s-*||-||*-----s-----s---s-*||-----s-----6-6-6-||*-----s-----s---s-*||----
---||--t--||-||--0-0-t-0-0-t-0-t--||-0-0-t-0-0-------||--0-0-t-0-0-t-0-t--||----
Intro 1st Verse

e e e e e e e e e e e e e e e e 4x e e e e e e e e 7x e e e e e e e
----r-----------||------r-----r---r--||-||------r-----r---r--||-----r-----------
----e-----------||*-----e-----e---e-*||-||*-----e-----e---e-*||-----e-----------
----s-----6-6-6-||*-----s-----s---s-*||-||*-----s-----s---s-*||-----s---6---6---
0-0-t-0-0-------||--0-0-t-0-0-t-0-t--||-||--0-0-t-0-0-t-0-t--||-0-0-t-0---0-----
2nd Verse

e e e e e e e e e e e e e e e e s s e e e e e e e e e e e e e e q e
--|-----------------|-------------------|-----------------|---------------|-----
--|-----------------|-------------------|-----------------|---------------|-----
6-|-6-6-6-6-6-6-6-6-|-6-6-6-6-6-6-6-6-x-|-9-6-6-6-6-6-6-4-|-6-6-6-6-6-----|-6---
--|-----------------|-------------------|-----------------|-----------2-2-|-----
Chorus

e e e e e e s s e e e e e e e s s e e e e e e e s s e e e e e e e e
----------------|-------------------|-------------------|-----------------||----
----------------|-------------------|-------------------|-----------------||*---
6-6-6-6-6-6-9-9-|-9-6-6-6-6-6-6-9-9-|-9-6-6-6-6-6-6-9-9-|-9-6-6-6-6-6-6-6-||*---
----------------|-------------------|-------------------|-----------------||----

e e e e e e e e 3x e e e e e e e e e e e e e e e e 7x e e e e e e e e
----r-----r---r--||-----r-----------||------r-----r---r--||-----r-----------|---
----e-----e---e-*||-----e-----------||*-----e-----e---e-*||-----e-----------|---
----s-----s---s-*||-----s-----6-6-6-||*-----s-----s---s-*||-----s-----------|---
0-0-t-0-0-t-0-t--||-0-0-t-0-0-------||--0-0-t-0-0-t-0-t--||-0-0-t-0-0-0-0-0-|---
3rd Verse

e e e e e e e e e e e e e e e s s e e e e e e e e e e e e e e q e e e
----------------|-------------------|-----------------|---------------|---------
----------------|-------------------|-----------------|---------------|---------
6-6-6-6-6-6-6-6-|-6-6-6-6-6-6-6-6-x-|-9-6-6-6-6-6-6-4-|-6-6-6-6-6-----|-6-6-6---
----------------|-------------------|-----------------|-----------2-2-|---------
Chorus

e e e e s s e e e e e e e s s e e e e e e e s s e e e e e e e e
------------|-------------------|-------------------|-----------------||--------
------------|-------------------|-------------------|-----------------||*-------
6-6-6-6-9-9-|-9-6-6-6-6-6-6-9-9-|-9-6-6-6-6-6-6-9-9-|-9-6-6-6-6-6-6-6-||*-------
------------|-------------------|-------------------|-----------------||--------

e e e e e e e e 3x e e e e e e e e e e e e e e e e 3x e e e e e e e e
-----------------||-----------------||-------------------||---------------------
----------------*||-----------------||*-----------------*||---------------------
----------------*||---2-------------||*-----------------*||---2-----------------
0-0-0-0-0-0-0-0--||-0---0-0-0-0-0-0-||--0-0-0-0-0-0-0-0--||-0---0-0-0-0-0-0-----
Interlude |
play quietly------------------------------------------------------------------|

e e e e e e e e 3x e e e e e e e e e e e e e e e e 3x e e H
||-------------------||-----r---r---r---||-------------------||---r-r-||--------
||*-----------------*||-----e---e---e---||*-----------------*||---e-e-||*-------
||*-----------------*||---2-s-0-s-0-s-0-||*-----------------*||---s-s-||*-------
||--0-0-0-0-0-0-0-0--||-0---t---t---t---||--0-0-0-0-0-0-0-0--||-0-t-t-||--------
play normally

e e e e e e e s s e e e e e e e s s e e e e e e e e e e e e e e q e e
------------------|-------------------|-----------------|---------------|-------
------------------|-------------------|-----------------|---------------|-------
6-6-6-6-6-6-6-6-x-|-6-6-6-6-6-6-6-6-x-|-9-6-6-6-6-6-6-4-|-6-6-6-6-6-----|-6-6---
------------------|-------------------|-----------------|-----------2-2-|-------
Chorus

e e e e e s s e e e e e e e s s e e e e e e e s s e e e e e e e e e e
--------------|-------------------|-------------------|-----------------|-------
--------------|-------------------|-------------------|-----------------|-------
6-6-6-6-6-9-9-|-9-6-6-6-6-6-6-9-9-|-9-6-6-6-6-6-6-9-9-|-9-6-6-6-6-6-6-6-|-7-7---
--------------|-------------------|-------------------|-----------------|-------

e e e e e s s e e e e e e e s s e e e e e e e e e e e e e e q e e e
--------------|-------------------|------------------|---------------|----------
--------------|-------------------|------------------|---------------|----------
7-7-7-7-7-7-x-|-7-7-7-7-7-7-7-7-x-|-10-7-7-7-7-7-7-5-|-7-7-7-7-7-----|-7-7-7----
--------------|-------------------|------------------|-----------3-3-|----------

e e e e s s e e e e e e e s s e e e e e e e s s e
--------------|----------------------|----------------------|-------------------
--------------|----------------------|----------------------|-------------------
7-7-7-7-10-10-|-10-7-7-7-7-7-7-10-10-|-10-7-7-7-7-7-7-10-10-|-10----------------
--------------|----------------------|----------------------|-------------------

e e e e e e e
---------------||
--------------*||
7-7-7-7-7-7-7-*||
---------------||
(repeat and fade)




Ваше мнение



Капча