Midnight Cowboy
by John Barry
Performed by Faith No More
From the albums Angel Dust and the maxi-single Songs To Make Love To
(C) 1969 EMI U Catalog Inc./Barwin Music, Inc.
This Arrangement (C) 1992 EMI U Catalog Inc./Barwin Music, Inc. (ASCAP)
transcribed by Joe White

w 3x H Q e e e H q e Q H Q e e e H q e Q H Q e e e H q e Q
----||--r--||-r-r-r-r---|---r-----|---r-------|---r-----|---r-------|---r-----|
12:-||*-e-*||-e-e-e-e---|---e-----|---e-------|---e-----|---e-------|---e-----|
8-:-||*-s-*||-s-s-s-s---|---s-----|---s-------|---s-----|---s-------|---s-----|
----||--t--||-t-t-t-t-3-|-5-t-3-5-|-3-t-3-3-3-|-5-t-3-5-|-3-t-3-3-3-|-5-t-3-5-|
Drums, Guitar Enter

H Q e e e H Q q e H h e H Q e e e H Q e e e H Q e e e h e e Q q e
|---r---r---|---r-----|-------|---r---r---|---r-r-----|---r-r-----|-------------|
|---e---e---|---e-----|-------|---e---e---|---e-e-----|---e-e-----|-------------|
|---s---s---|---s-----|-1-----|---s---s---|---s-s-----|---s-s-----|-1-1-1-------|
|-3-t-3-t-3-|-1-t-1-1-|---0-0-|-5-t-5-t-5-|-3-t-t-3-3-|-1-t-t-1-1-|-------0-0-0-|

H Q q e H Q q e H Q q e h e e Q q e H Q e e e H Q e e e 4x
|---------|---------|---------|-------------||----r-------|---r--------||
|---------|---------|---------|-------------||*---e-------|---e-------*||
|---------|---------|---------|-1-1-1-------||*---s-------|---s-------*||
|-5-5-5-5-|-3-3-3-3-|-1-1-1-1-|-------0-0-0-||--5-t-5-5-5-|-3-t-3-3-3--||
Strings Enter

e e e e e e e e e e e e e e e e e e e e e e e e e e e e e e e e e e e e
||--------------------------|-------------------------|-------------------------|
||*-------------------------|-------------------------|-------------------------|
||*-------------------------|-------------------------|-------------------------|
||--5-5-5-5-5-5-5-5-5-5-5-5-|-3-3-3-3-3-3-3-3-3-3-3-3-|-1-1-1-1-1-1-1-1-1-1-1-1-|

e e e e e e e e e e e e 3x H Q e e e H e e e e e e
|--------------------------||----r-------|---r------------||
|-------------------------*||*---e-------|---e-----------*||
|-1-1-1-1-1-1-------------*||*---s-------|---s-----------*||
|-------------0-0-0-0-0-0--||--5-t-5-5-5-|-3-t-3-3-3-3-3--||
Repeat ad lib and Fade Out




Ваше мнение



Капча