----------------------------------------------------------------------------
LAST CUP OF SORROW - Faith No More
----------------------------------------------------------------------------
Tabbed by: Jesse Benedick
Email: [email protected]

Tuning: Standard

e|------------|------------------------------------------------------------|
B|------------|------------------------------------------------------------|
G|------------|------0---0---0---0-----0---0---0---0-----------------------|
D|--5----2----|----7---7---5---5-----7---7---8---8-------------------------|
A|--5----2----|--0-----------------0---------------------------------------|
E|--3----0----|------------------------------------------------------------|
pm. Repeat twice
e|--0----0----0----0----|--------------------------------------------------|
B|--0----0----0----0----|--------------------------------------------------|
G|--4----2----4----2----|------0--------0-------0-------0------------------|
D|--4----2----5----2----|----5--------5-------5-------5--------------------|
A|--2----0----5----0----|--0--------0-------0-------0----------------------|
E|------------3---------|--------------------------------------------------|
Chorus

| / slide up
| slide down
| h hammer-on
| p pull-off
| ~ vibrato
| + harmonic
| x Mute note
===============================================================================




Ваше мнение



Капча