Just A Man
by Faith No More
From the album King For A Day/Fool For A Lifetime
(C) 1995 Big Thrilling Music/Give Us Our Publishing (ASCAP)
transcribed by Joe White

e s s s s s s s s e s s s s e s s s s s s s s e e e e s s s s s s s s
-----r-----------r-------------|---r-----------r---------|---r-----------r------
4:---e-----------e-------------|---e-----------e---------|---e-----------e------
4:-3-s---3-0---3-s-3-3-0-0-0-0-|-3-s---3-0---3-s-3-3-0-0-|-3-s---3-0---3-s-3----
-----t-3-----3---t-------------|---t-3-----3---t---------|---t-3-----3---t------
Intro

e s s e s e s s s s s e e q e s s s s s s s s s s s s s s e s s s s s
--------|-------r-------5-r---||----r-----------r---------------|---r-----------
--------|-------e---2-5---e---||*---e-----------e---------------|---e-----------
3-0-0-0-|-3-3-3-s-3-------s-0-||*-3-s---3-0---3-s-3-3-3-0-0-0-0-|-3-s---3-0-----
--------|-------t---------t---||----t-3-----3---t---------------|---t-3-----3---
1st Verse

s s s s s e e 4x E E q s e s e E E q s e s e E E q E s s s E E e q
--r------------||-----7---r---7-|-----7---r---7-|-----2-r---2---|-----2-(2)/4---
--e-----------*||---7---7-e-7---|---7---7-e-7---|---2---e-2---2-|---2-----------
3-s-3-3-3-0-0-*||-5-------s-----|-5-------s-----|-0-----s-------|-0-------------
--t------------||---------t-----|---------t-----|-------t-------|---------------
Pre-chorus

q E E q s e s e E E q s e s e E E q s e s s s s e s s s s s e Q
(4)/5-|-----7---r---7-|-----7---r---7-|-----5---r---5---|-------r-------5-r-----
------|---7---7-e-7---|---7---7-e-7---|---5---5-e-5---5-|-------e---2-5---e-----
------|-5-------s-----|-5-------s-----|-3-------s-------|-3-3-3-s-3-------s-----
------|---------t-----|---------t-----|---------t-------|-------t---------t-----

e s s s s s s s s s s s s s s e s s s s s s s s s s e e 2x e s s s s s
||----r-----------r---------------|---r-----------r------------||---r-----------
||*---e-----------e---------------|---e-----------e-----------*||---e-----------
||*-3-s---3-0---3-s-3-3-3-0-0-0-0-|-3-s---3-0---3-s-3-3-3-0-0-*||-3-s---3-0-----
||----t-3-----3---t---------------|---t-3-----3---t------------||---t-3-----3---
2nd Verse

s s s s s s s s s e s s s s s s s s e s s s s e s s s s s s s s e e e e
--r---------------|---r-----------r-------------|---r-----------r---------|-----
--e---------------|---e-----------e-------------|---e-----------e---------|-----
3-s-3-3-3-0-0-0-0-|---s-----------s-------------|---s-----------s---------|-3---
--t---------------|-5-t-5-5-3-0-5-t-5-5-0-0-0-0-|-3-t-0-3-3-3-3-t-3-3-3-3-|-----

s s s s s s s s e e e e e e e e e e s s e e e e e e e s s e e e e e e e
r-----------r---------|-------------------|-------------------|-----------------
e-----------e---------|-------------------|-------------------|-----------------
s---3-0---3-s-3-3-0-0-|-------------------|-------------------|-4-4-4-4-4-4-4---
t-3-----3---t---------|-4-4-4-4-4-4-4-4-4-|-1-1-1-1-1-1-1-1-1-|-----------------
Chorus

e e e e e e e e e e e e e e e e s s e e e e e e e s s e e e e e e e e
--|-----------------|-------------------|-------------------|-------------------
--|-----------------|-------------------|-------------------|-------------------
3-|-1-1-1-1-1-1-1-1-|-------------------|-------------------|-6-6-6-6-6-6-6-5---
--|-----------------|-4-4-4-4-4-4-4-4-4-|-1-1-1-1-1-1-1-1-1-|-------------------

e e e e e e e e e s s s s s s s s s s s s s s e s s s s s s s s s s e e
|-----------------|---r-----------r---------------|---r-----------r-------5-r---
|-----------------|---e-----------e---------------|---e-----------e---2-5---e---
|-4-4-4-4-4-4-4-4-|-3-s---3-0---3-s-3-3-3-0-0-0-0-|-3-s---3-0---3-s-3-------s---
|-----------------|---t-3-----3---t---------------|---t-3-----3---t---------t---

e s s s s s s s s s s s s s s e s s s s s s s s s s s s e e s s s s s
|---r-----------r---------------|---r-----------r-------------||----r-----------
|---e-----------e---------------|---e-----------e-------------||*---e-----------
|-3-s---3-0---3-s-3-3-3-0-0-0-0-|-3-s---3-0---3-s-3-3-3-0-0-0-||*-3-s---3-0-----
|---t-3-----3---t---------------|---t-3-----3---t-------------||----t-3-----3---
3rd Verse

s s s s s s s s s e s s s s s s s s e e e 2x E E q s e s s s e E E q s e
--r---------------|---r-----------r----------||-----7---r---7---7-|-----7---r---
--e---------------|---e-----------e---------*||---7---7-e-7---7---|---7---7-e---
3-s-3-3-3-0-0-0-0-|-3-s---3-0---3-s-3-3-0-0-*||-5-------s---------|-5-------s---
--t---------------|---t-3-----3---t----------||---------t---------|---------t---
Pre-chorus

s s s E E q E s s s E E e q q E E q s e s s s E E q s e s s s
--7---|-----2-r---2---|-----2-(2)/4-(4)/5-|-----7---r---7---|-----7---r---7-----
7---7-|---2---e-2---2-|---2---------------|---7---7-e-7---7-|---7---7-e-7---7---
------|-0-----s-------|-0-----------------|-5-------s-------|-5-------s---------
------|-------t-------|-------------------|---------t-------|---------t---------

E E q s e s s s s e s s s s s e Q s t t s s s t t s s s t t s s s t t
|-----5---r---5---|-------r-------5-r-||----------------------------------------
|---5---5-e-5---5-|-------e---2-5---e-||*---------------------------------------
|-3-------s-------|-3-3-3-s-3-------s-||*---------------------------------------
|---------t-------|-------t---------t-||--0-0-0-0-0-0-0-0-0-0-0-0-0-0-0-0-0-0---
Interlude

s s s t t s s s s s s s s s s s s s s 3x s t t s s s t t s s s t t s s s t
----|------------------------------------||-------------------------------------
----|-----------------------------------*||-------------------------------------
----|-3-3-3-3-3-3-3-3-3-3-3-3-3-3-5-5-5-*||-------------------------------------
0-0-|------------------------------------||-0-0-0-0-0-0-0-0-0-0-0-0-0-0-0-0-0---

t s s s s s s s s s s s s s s s s s s e e e e e e e s s e e e e e e e
------|---------------------------------||--------------------|-----------------
------|---------------------------------||*-------------------|-----------------
------|-3-3-3-3-3-3-3-3-3-3-3-3-3-3-3-3-||*-------------------|-----------------
0-0-0-|---------------------------------||--4-4-4-4-4-4-4-4-4-|-1-1-1-1-1-1-1---
Outro

s s e e e e e e e e e e e e e e e e e e e e e e e s s e e e e e e e s
----|-----------------|-----------------|-------------------|-------------------
----|-----------------|-----------------|-------------------|-------------------
----|-4-4-4-4-4-4-4-3-|-1-1-1-1-1-1-1-1-|-------------------|-------------------
1-1-|-----------------|-----------------|-4-4-4-4-4-4-4-4-4-|-1-1-1-1-1-1-1-1---

s e e e e e e e e e e e e e e e e
--|-----------------|------------------||
--|-----------------|-------------2-5-*||
--|-6-6-6-6-6-6-6-6|-4-4-4-4-3-5-----*||
1-|-----------------|------------------||
(repeat ad lib and fade)




Ваше мнение



Капча