-##
From: Paul D
Subject: TAB: "Jizzlobber" by Faith No More
Faith No More's "Jizzlobber" is a relatively simple song. The beginning
chords are all fifths (power chords). The following tab is the chords and
the beat on which you should play them. I suppose you could call this the
"verse" part...
(first there's just drums and keyboard for 3 measures, then...)
1 2 3 4 1 2 3 4 1 2 3 4 1 2 3 4 1 2 3 4 1 2 3 4 1 2 3 4 1 2 3 4 1 2 3 4
E--------------------------------------------------------------------------|
B--------------------------------------------------------------------------|
G--------------------------------------------------------------------------|
D----6---5~~~~~~~~~~-6---3~~~~~~~~~~-----6\5~~~~~~~~~~-6/11\10~~~~~-4------|
A----4---3~~~~~~~~~~-4---1~~~~~~~~~~-2---4\3~~~~~~~~~~-4/-9\-8~~~~~-2---2--|
E------------------------------------0-0--------------------------------0-0|
Listen to the tape (or CD) to get the little changes as it progresses, but
that's the gist of it.
Here's the "chorus" part:
Play this 3 times... Then play this once...
E-|---------------------------------||-------------------------------------|
B-|---------------------------------||-------------------------------------|
G-|---------------------------------||-----------------4------3------2-----|
D-|---------------3---------------3-||---------------3---5~~~---4~~~---3---|
A-|---------1---3-----------1---3---||---------1---3-----------------------|
E-|-0-0-0-0---2-----0-0-0-0---2-----||-0-0-0-0---2-------------------------|
I don't know WHAT to call THIS part, but it's in there:
play twice... then, play twice...
E-|-------------------------| |-------------------------||
B-|-------------------------| |-------------------------||
G-|-------------------------| |-------------------------||
D-|-------------------------| |-------------------------||
A-|-3---5-3---5-3---5-3---5-| |-1---3-1---3-1---3-1---3-||
E-|---4-----4-----4-----4---| |---2-----2-----2-----2---||
Then do those parts again!!
Now, some other part I can't put a song-structure-type name on:
E-|------------------------|-----------------------|-----------------------|
B-|------------------------|-----------------------|-----------------------|
G-|------------------------|--------------------7--|-----------------------|
D-|---------5-----------5--|--------5---5---5-8---8|--------3-----------3--|
A-|-3---3-6---6-3---3-6---6|3---3-6---6---6--------|1---1-4---4-1---1-4---4|
E-|---4-----------4--------|--4--------------------|--2-----------2--------|
E-|------------------------|-----------------------|-----------------------|
B-|------------------------|-----------------------|-----------------------|
G-|---------------------5--|-----------------------|--------------------7--|
D-|---------3---3---3-6---6|--------5-----------5--|--------5---5---5-8---8|
A-|-1---1-4---4---4--------|3---3-6---6-3---3-6---6|3---3-6---6---6--------|
E-|---2--------------------|--4-----------4--------|--4--------------------|
E-|------------------------|-----------------------||
B-|------------------------|-----------------------||
G-|------------------------|-----------------------||
D-|---------3-----------3--|-----------------------||
A-|-1---1-4---4-1---1-4---4|1---3-1---3-1---3-1---3||
E-|---2-----------2--------|--2-----2-----2-----2--||
Then play this twice:
E-|------------------------|----------------------------||
B-|------------------------|----------------------------||
G-|------------------------|----------------------------||
D-|---------7-----------7--|---------9-------------9----||
A-|-5---5-8---8-5---5-8---8|7---7-10---10-7---7-10---10-||
E-|---6-----------8--------|--8-------------8-----------||
It gets kinda weird after that. But the guitar chords are pretty much the
same as the beginning. It doesn't really get any harder. If you're really
desperate and can't figure it out email me and I'll try to make of it what
I can. Also email me if you need the lyrics (they're yecchy!).
Good luck!
Paul D. ([email protected]) OR ([email protected])




Ваше мнение



Капча