Faith no more
I wont forget you
1998 Who cares alot? the greatest hits,
bonus disc.
Transcribed by MigiT
[email protected]
Strum chords to rhythm of song
Fig.1 (a)
|0--0--0--0|
|0--1--3--5|(rpt several times)
|----------|
|----------|
Fig.1 (b)
|0--0------|
|0--1------|
|----------|
|----1xxx3|
Fig.2 (a)
|-----------|
|-----------|
|-----xxx3-2|
|3-3-3------|
Fig.2 (b main riff)
|---------------|
|---------------|
|---------xxx3-2|
|0-0h3-3-3------|
Fig.3
|---------------|
|---------------|
|---------------|
|0-0-0-0-0-0-0-0|
Fig.4
|------------|
|------------|
|-3-3-3-4-4-4|
|2-2-2-3-3-3|
fig.4 cont
|---------------|
|---------------|
|---------------|
|0-0-0-0-0-0-0-0|
Chorus.1
|-----------------|
|-----------------|
|-4---4-----5---5-|
|2-2x2-2x2-3-3x3-3|
Chorus.1 cont
|---------------|
|---------------|
|---------------|
|0-0-0-0-0-0-0-0|
Fill.
|-----------|
|-----------|
|----x-5-x-6|
|3-2--------|
Bridge.
|-----------------------|
|-----------------------|
|1-0--------------------|
|----0-1-1-1-1-1-1-1-1-1|
Fig.5
| |-----------|
|pause |-----------|
|(guitar) |6-6-6-7-7-7|
| |4-4-4-5-5-5|
Fill
|-----|
|-----|
|3-3-3|
|1-1-1|
Chorus.2
|-----------------|
|-----------------|
|-5---5-----6---6-|
|3-3x3-3x3x4-4x4-4|
Fig.6(strum to rhythm)
|0--0--0--0-3-3-3-3|
|0--1--3--5-3-3-3-3|
|------------------|
|------------------|
Any questions, probs, corrections, etc, etc,
Email me at [email protected]
Rock on.




Ваше мнение



Капча