The Gentle Art Of Making Enemies
by Faith No More
From the album King For A Day/Fool For A Lifetime
(C) 1995 Big Thrilling Music/Give Us Our Publishing (ASCAP)
transcribed by [email protected] (PINTER Denes)
re-tabbed by Joe White

w 4x H e e +e e e e e e e e e e e e e e e e +e e e e e e e e
---||--r--||-r-r---|-----------------|-----------------|-----------------|
4:-||*-e-*||-e-e---|-----------------|-----------------|-----------------|
4:-||*-s-*||-s-s---|-----------------|-------3-3-------|-----------------|
---||--t--||-t-t-2-|-2-2-2-2-2-2-2-2-|-0-2-5-----2-0-0-|-0-0-0-0-0-0-0-0-|
Intro

e e e e e e e e +e e e e e e e e e e e e e e e e e e e e e e
|-----------------|-----------------|-----------------|-----------r----|
|-----------------|-----------------|-----------------|-----------e-6:-|
|-------3-3-------|-----------------|-------3-3-------|-7-7-7-7-7-s-4:-|
|-0-2-5-----2-5-2-|-2-2-2-2-2-2-2-2-|-0-2-5-----2-0-0-|-0-0-0-0-0-t----|

e e e e q e e q q 4x e e e e e e e e 4x e e e e e e e e 2x
||---------------------||----||-------------------||-------------------||
||*-------------------*||-4:-||*-----------------*||*-----------------*||
||*-------------------*||-4:-||*-----------------*||*-----------------*||
||--0-0-3-0-6-0-0-6-6--||----||--2-2-2-2-2-2-2-2--||--1-1-1-1-1-1-1-1--||
1st Verse

e e e e e e e e e e e e e e e e e e e e e e e e 4x e e e e e e e e 2x
|-----------------|-----------------||-------------------||-------------------||
|-----------------|-----------------||*-----------------*||*-----------------*||
|-----------------|-----------------||*-----------------*||*-----------------*||
|-2-2-2-2-2-2-2-2-|-2-2-2-2-3-3-3-3-||--2-2-2-2-2-2-2-2--||--1-1-1-1-1-1-1-1--||

e e e e e e e e e e e e e e e e e e e e e e e e q e e e e e e 4x
|-----------------|-----------------||----r-r-----r-r---|-r--------------||
|-----------------|-----------------||*---e-e-----e-e---|-e-------------*||
|-----------------|-----------------||*---s-s-----s-s---|-s-------0-----*||
|-2-2-2-2-2-2-2-2-|-2-2-2-2-2-2-2-2-||--0-t-t-1-2-t-t-2-|-t-0-1-2---2-1--||

e e e e e e e e q e e e e e e 3x e e e e e e e e q e e q q
||------------------|-r--------------||-----------------|-r---------|
||*-----------------|-e-------------*||-----------------|-e---------|
||*-----------------|-s-------0-----*||-----------------|-s---------|
||--1-1-1-1-2-2-2-2-|-t-0-1-2---2-1--||-1-1-1-1-2-2-2-2-|-t-x-x-2-5-|

e e e e e e e e e e e e e e e e e e e e e e e e
||------------------|-----------------|--------------------|
||*-----------------|-----------------|-----------------6:-|
||*-----------------|-----------------|-----------------4:-|
||--7-7-7-7-7-7-7-7-|-7-7-7-7-5-5-5-5-|-3-3-3-3-3-3-3-3----|

e e e e e e e e q q e e e e e e e e e e q e e e e e e e e e e q 2x
|---------------------|-----------------------|------------------------||
|---------------------|-----------------------|-----------------------*||
|-----------------5-7-|-----------------------|-----------------------*||
|-3-3-3-3-3-3-3-3-----|-0-0-0-0-0-0-0-0-0-0-6-|-0-0-0-0-0-0-0-0-0-0-6--||

e e e e e e e e 4x e e e e e e e e 2x e e e e e e e e
---||-------------------||-------------------||-----------------|
4:-||*-----------------*||*-----------------*||-----------------|
4:-||*-----------------*||*-----------------*||-----------------|
---||--2-2-2-2-2-2-2-2--||--1-1-1-1-1-1-1-1--||-2-2-2-2-2-2-2-2-|
2nd Verse

e e e e e e e e e e e e e e e e 4x e e e e e e e e 2x
|-----------------||-------------------||-------------------||
|-----------------||*-----------------*||*-----------------*||
|-----------------||*-----------------*||*-----------------*||
|-2-2-2-2-0-0-0-0-||--2-2-2-2-2-2-2-2--||--1-1-1-1-1-1-1-1--||

e e e e e e e e e e e e e e q e e e e e e e e q e e e e e e 4x
|-----------------|---------------||----r-r-----r-r---|-r--------------||
|-----------------|---------------||*---e-e-----e-e---|-e-------------*||
|-----------------|---------------||*---s-s-----s-s---|-s-------0-----*||
|-2-2-2-2-2-2-2-2-|-2-2-2-2-2-2-2||--0-t-t-1-2-t-t-2-|-t-0-1-2---2-1--||

e e e e e e e e q e e e e e e 3x e e e e e e e e q e e q q
||------------------|-r--------------||-----------------|-r---------|
||*-----------------|-e-------------*||-----------------|-e---------|
||*-----------------|-s-------0-----*||-----------------|-s---------|
||--1-1-1-1-2-2-2-2-|-t-0-1-2---2-1--||-1-1-1-1-2-2-2-2-|-t-x-x-2-5-|

e e e e e e e e e e e e e e e e e e e e e e e e
||------------------|-----------------|--------------------|
||*-----------------|-----------------|-----------------6:-|
||*-----------------|-----------------|-----------------4:-|
||--7-7-7-7-7-7-7-7-|-7-7-7-7-5-5-5-5-|-3-3-3-3-3-3-3-3----|
Chrous

e e e e e e e e q q e e e e e e e e e e q e e e e e e e e e e q 2x
|---------------------|-----------------------|------------------------||
|---------------------|-----------------------|-----------------------*||
|-----------------5-7-|-----------------------|-----------------------*||
|-3-3-3-3-3-3-3-3-----|-0-0-0-0-0-0-0-0-0-0-6-|-0-0-0-0-0-0-0-0-0-0-6--||

w 4x H e e e e e e e e e e e e e e e e e e e e e e e e e e
---||--r--||-r-r---||------------------|-----------------|-----------------|
4:-||*-e-*||-e-e---||*-----------------|-----------------|-----------------|
4:-||*-s-*||-s-s---||*-----------------|-------3-3-------|-----------------|
---||--t--||-t-t-2-||--2-2-2-2-2-2-2-2-|-0-2-5-----2-0-0-|-0-0-0-0-0-0-0-0-|
Outro

e e e e e e e e 7x e e e e e e e e e e e e e e e e e e e e e e
|------------------||-----------------|-----------------|-----------r-||
|-----------------*||-----------------|-----------------|-----------e-||
|-------3-3-------*||-----------------|-------3-3-------|-7-7-7-7-7-s-||
|-0-2-5-----2-5-2--||-2-2-2-2-2-2-2-2-|-0-2-5-----2-0-0-|-0-0-0-0-0-t-||




Ваше мнение



Капча