----------------------------------------------------------------------------
FROM OUT OF NOWHERE - Faith No More
----------------------------------------------------------------------------
Tabbed by: Jesse Benedick
Email: [email protected]

Tuning: Standard

e|-----|----------------------|--------------------------------------------|
B|-----|----------------------|--------------------------------------------|
G|--5--|--5----8----10/1210--|-----3-----3-----3-----3--------------------|
D|--5--|--5----8----10/1210--|--5--3--5--3--5--3--5--3--------------------|
A|--3--|--3----6----8-/108---|--5--1--5--1--5--1--5--1-1-3-1--1-3-1--1-3-1|
E|-----|----------------------|--3-----3-----3-----3-----------------------|
Chord patterns are very easy Palm Mute
e|--------|----------------------------------------------------------------|
B|--------|----------------------------------------------------------------|
G|--------|--5-------------------------------------------------------------|
D|--------|--5--------6----8----10---12------------------------------------|
A|-1-3-1--|--3--------6----8----10---12------------------------------------|
E|--------|-----------4----6----8----10------------------------------------|
Chorus
e|-------------------------------------------------------------------------|
B|-------------------------------------------------------------------------|
G|-------------------------------------------------------------------------|
D|-------------------------------------------------------------------------|
A|--3---5---7---8--7-5-3---5---7---8--7-5-3--------------------------------|
E|-------------------------------------------------------------------------|
Chorus 2nd time
e|---------------------------------------|---------------------------------|
B|---------------------11--13---15-------|---------------------------------|
G|--9---10--12---14-------------------7--|--5------------------------------|
D|---------------------8---10---12----7--|--5------------------------------|
A|--7---8---10---12-------------------5--|--3------------------------------|
E|---------------------------------------|---------------------------------|
End of Chorus End Chord

| / slide up
| slide down
| h hammer-on
| p pull-off
| ~ vibrato
| + harmonic
| x Mute note
============================================================================




Ваше мнение



Капча