Evidence
by Faith No More
From the album King For A Day/Fool For A Lifetime
(C) 1995 Big Thrilling Music/Give Us Our Publishing (ASCAP)
transcribed by Anthony Morfitt
re-tabbed by Joe White
H e s s s s q e e q s s 4x Q e +h Q e+h e q h s s
---r-r-----||----------r--------||----------|-------|----------------|
4:-e-e-----||*---------e-------*||----------|-------|----------------|
4:-s-s-----||*---------s-------*||-12-10-10-|-9-8-8-|-------10-10h12-|
---t-t-0h4-||--5p4h5-0-t-0-0h4--||----------|-------|-12-12----------|
e q q e s s s s Q e+h Q h s s e q Q+s s s s e q Q+s s s s
|------------------------||--------|---------|---------------|---------------|
|------------------------||*-------|---------|---------------|---------------|
|-------10---------------||*-------|---------|---------------|---------------|
|-12-12----12-1210-8h10-||--5-3-3-|-2-1-3h5-|-0-0-3-3-0-3h5-|-0-0-3-3-0-3-5-|
1st verse
Q h e e e e e e e e s s e q Q+s s s s e q Q s s s s 4x q e e+h
|-------|-------------------|---------------|----------------||----------|
|-------|-------------------|---------------|---------------*||*---7-----|
|-------|---4---------------|---------------|---------------*||*-----5-5-|
|-5-3-2-|-2---2-1-1-1-1-3h5-|-0-0-3-3-0-3h5-|-0-0-3-3-0-3-5--||--5-------|
Chorus (ad lib)
Q e e e q 4x Q h e Q h s s e q Q s s s s e q Q q Q h e
|-----r------||--------|---------|---------------|----------||--------|
|-----e-----*||--------|---------|---------------|----------||*-------|
|-7-8-s-----*||--------|---------|---------------|-------12||*-------|
|-----t-5-5--||--5-3-3-|-2-1-3h5-|-0-0-3-3-0-3h5-|-0-0-3----||--5-3-3-|
2nd verse
Q h s s e q Q+s s s s e q Q s s e 3x Q h e e e e e e e e s s
|---------|---------------|--------------||-------|-------------------|
|---------|---------------|-------------*||-------|-------------------|
|---------|---------------|-------------*||-------|---4---------------|
|-2-1-3h5-|-0-0-3-3-0-3h5-|-0-0-3-3-0-3--||-5-3-2-|-2---2-1-1-1-1-3h5-|
e q Q s s s s e e e e e e q q e e+h Q e e e q 3x q e e+h
|---------------|----------------||----------|-----r------||---------|
|---------------|----------------||*---7-----|-----e-----*||---7-----|
|---------------|------------/12||*-----5-5-|-7-8-s-----*||-----5-5-|
|-0-0-3-3-0-3h5-|-0-0-0-3-3-3----||--5-------|-----t-5-5--||-5-------|
Chorus (ad lib)
s s q e e e e e q e e e q s s s s q e e q s s 5x e e e e e e e e
|---------r----r----|----r---r-------||----------r--------||-----------------|
|---------e----e----|----e---e-------||*---------e-------*||-----------------|
|-7p5h7-8-s-10-s-11-|-12s---s-------||*---------s-------*||-------------5-5-|
|---------t----t----|----t-0-t-0-0h4-||--5p4h5-0-t-0-0h4--||-5-5-7-7-8-8-----|
Guitar solo
s s q s s s s e s s s s s q e e q s s 8x E H+s E s+H 3x E s+Q e
|-----------------r-----||----------r--------||--------|--------||---------|
|-----------------e-----||*---------e-------*||*---3---|---5-5-*||---3-3---|
|-7/87-7-7-----7-s-----||*---------s-------*||*-------|-------*||---------|
|-----------7/8---t-0h4-||--5p4h5-0-t-0-0h4--||--1---1-|-3------||-1-----1-|
E E e e e e e q e e h Q e e e q 7x q e e h Q e e e e e w
|---------------||----------|-----r------||---------|-----r----r----|----||
|---5-----------||*---7-----|-----e-----*||---7-----|-----e----e----|----||
|---------------||*-----5-5-|-7-8-s-----*||-----5-5-|-7-8-s-10-s-11-|-12-||
|-3---3-4-4-4-4-||--5-------|-----t-5-5--||-5-------|-----t----t----|----||
Chorus (hold)




Ваше мнение



Капча