-##
From alt.guitar.tab Mon Jun 7 21:03:42 1993
Path: tcdcs!ieunet!mcsun!uknet!bnr.co.uk!bnrgate!nott!torn!howland.reston.ans.net!usc!cs.utexas.edu!rutgers!rochester!cantaloupe.srv.cs.cmu.edu!crabapple.srv.cs.cmu.edu!bb3.andrew.cmu.edu!andrew.cmu.edu!vo23+
From: [email protected] (Victor Ortega)
Newsgroups: alt.guitar.tab
Subject: TAB: Epic (Faith No More)
Message-ID:
Date: 6 Jun 93 03:20:21 GMT
Organization: Freshman, Mechanical Engineering, Carnegie Mellon, Pittsburgh, PA
Lines: 321
NNTP-Posting-Host: andrew.cmu.edu

EPIC - Faith No More
From the Slash recording THE REAL THING
Transcribed by Victor Ortega ([email protected])
E5 B5 C5 D5 E5
|-----------------|-----------------|-----------------|-----------------|
|-----------------|-----------------|-----------------|-----------------|
|-----------------|-----------------|-----------------|-----------------|
|-----------------|-4---------------|-5------7--------|-9---------------|
|-2---------------|-2---------------|-3------5--------|-7---------------|
|-0---------------|-----------------|-----------------|-0---------003323|
1 + 2 + 3 + 4 + 1 + ... PM^^
Can you feel it, see it... [no guitar for 8 bars] ... off your feet!
|--------|--------|--------|--------|--------|--------|--------|--------|
|--------|--------|--------|--------|--------|--------|--------|--------|
|--------|--------|--------|--------|--------|--------|--------|--------|
|--------|--------|--------|--------|--------|--------|--------|--------|
|--------|--------|--------|--------|--------|--------|--------|--------|
|--------|--------|--------|--------|--------|--------|--------|--------|
You want it all but you can't have it It's
E5 B5 C5 D5 E5
|-----------------|-----------------|-----------------|-----------------|
|-----------------|-----------------|-----------------|-----------------|
|-----------------|-----------------|-----------------|-----------------|
|-----------------|-4---------------|-5------7--------|-9---------------|
|-2---------------|-2---------------|-3------5--------|-7---------------|
|-0---------------|-----------------|-----------------|-0---------003323|
PM^^
crying, bleeding, lyin on t'floor so y'lay dwn on it 'n y'do it s'more You
|-----------------------------------|-----------------------------------|
|-----------------------------------|-----------------------------------|
|-----------------------------------|-----------------------------------|
|-----------------------------------|-----------------------------------|
|-----------------------------------|-----------------------------------|
|-----------------------------------|------------------------------3-3--|
1 + 2 + 3 + 4 + 1 + 2 + 3 + 4 +
got to share-it so you dare-it then you bare-it and you tear-it!
|-----------------------------------|--------------------8---9---10--11-|
|---------/8---------7-X-8----------|---------/8--------7---8---9---10--|
|---------/7---------6-X-7----------|---------/7-------6---7---8---9----|
|---------/6---------5-X-6----------|---------/6------------------------|
|---------/7---------6-X-7----------|---------/7-------[sweep triplets]-|
|--3-0(0)--------0-0-----------3-3--|--3-0(0)------0--------------------|
PM_|
1 + 2 + 3 + 4 + 1 + 2 + 3 + 4 +
You want it all... It's
E5 B5 C C D Em D C E5
|-----|-----|-----------------------|-----------------------------------|
|-----|-----|-[two-guitar harmony]--|-----------------------------------|
|-----|-----|-----------------------|-----------------------------------|
|-----|-4---|-2---2--4/5-5\4-4\2-2--|--9-------9-------9----------------|
|-2---|-2---|-3---3--5/7-7\5-5\3-3--|--7-------7-------7----------------|
|-0---|-----|-----------------------|----0-0-0---0-0-0---0-0-0-3-3-2-3--|
PM___| PM___| PM___|
1... 1... 1 + 2 + 3 + 4 1 + 2 + 3 + 4 +
alive afraid a lie a sin it's magic it's tragic it's a loss it's a win
|-----------------------------------|-----------------------------------|
|-----------------------------------|-----------------------------------|
|-----------------------------------|-----------------------------------|
|-----------------------------------|-----------------------------------|
|-----------------------------------|-----------------------------------|
|-----------------------------------|------------------------------3-3--|
It's dark it's moist it's a bitter pain it's sad it happnd' and it's a shame!
|-----------------------------------|--------------------8---9---10--11-|
|---------/8---------7-X-8----------|---------/8--------7---8---9---10--|
|---------/7---------6-X-7----------|---------/7-------6---7---8---9----|
|---------/6---------5-X-6----------|---------/6------------------------|
|---------/7---------6-X-7----------|---------/7-------[sweep triplets]-|
|--3-0(0)--------0-0-----------3-3--|--3-0(0)------0--------------------|
PM^^^
1 + 2 + 3 + 4 + 1 + 2 + 3 + 4 +
You want it all...
E5 B5 C C D Em D C E5
|-----|-----|-----------------------|-----------------------------------|
|-----|-----|-[two-guitar harmony]--|-----------------------------------|
|-----|-----|-----------------------|-----------------------------------|
|-----|-4---|-2---2--4/5-5\4-4\2-2--|--9-------9-------9----------------|
|-2---|-2---|-3---3--5/7-7\5-5\3-3--|--7-------7-------7----------------|
|-0---|-----|-----------------------|----0-0-0---0-0-0---0-0-0-3-3-2-3--|
PM___| PM___| PM___|
It's in your face... It's
E5 B5 C C D Em D C E5
|-----|-----|-----------------------|-----------------------------------|
|-----|-----|-[two-guitar harmony]--|-----------------------------------|
|-----|-----|-----------------------|-----------------------------------|
|-----|-4---|-2---2--4/5-5\4-4\2-2--|--9-------9-------9----------------|
|-2---|-2---|-3---3--5/7-7\5-5\3-3--|--7-------7-------7----------------|
|-0---|-----|-----------------------|----0-0-0---0-0-0---0-0-0-3-3-2-3--|
PM___| PM___| PM___|
it what is it It's it what is it
|-----------------------------------|-----------------------------------|
|-----------------------------------|-----------------------------------|
|-----------------------------------|-----------------------------------|
|--9-------9-------9----------------|--9-------9-------9----------------|
|--7-------7-------7----------------|--7-------7-------7----------------|
|----0-0-0---0-0-0---0-0-0-3-3-2-3--|----0-0-0---0-0-0---0-0-0-3-3-2-3--|
PM___| PM___| PM___| PM___| PM___| PM___|
it what is it It's it what is it
|-----------------------------------|-----------------------------------|
|-----------------------------------|-----------------------------------|
|-----------------------------------|-----------------------------------|
|--9-------9-------9----------------|--9-------9-------9----------------|
|--7-------7-------7----------------|--7-------7-------7----------------|
|----0-0-0---0-0-0---0-0-0-3-3-2-3--|----000-00--000-00--000-00323-2-3--|
PM___| PM___| PM___| PM___| PM___| PM___|
Two guitars:
Guitar 1
|-----------------|-0---------------|-----------------|-----------------|
|-----------------|-[let ring]------|-----------------|-----------------|
|-----------------|--------0--------|-----------------|-----------------|
|-----------------|-----------------|-----------------|-----------------|
|-2---------------|(2)--------------|-2---------------|(2)--------------|
|-0---------------|(0)--------------|-0---------------|(0)--------------|
|
|Guitar 2
|-----------------|-----------------|-----------------|-----------------|
|-----------------|-----------------|-----------------|-----------------|
|-----------------|-----------------|------------5-4--|(4)--------------|
|-----------------|-----------------|-----------------|-----------------|
|-2---------------|(2)--------------|-(2)-------------|-----------------|
|-0---------------|(0)--------------|-(0)-------------|-----------------|

Guitar 1
|-----------------|-----------------|-----------------|-----------------|
|-----------------|-----------------|-10------13------|-15-----12-------|
|-5-------7-------|-9------12-------|-----------------|-----------------|
|-----------------|-----------------|-7-------10------|-12-----9--------|
|-3-------5-------|-7------10-------|-----------------|-----------------|
|-----------------|-----------------|-----------------|-----------------|
|
|Guitar 2
|-----------------|-----------------|-----------------|-----------------|
|-----------------|-----------------|-----------------|-----------------|
|-5-------7-------|-9------12-------|-5-------7-------|-9------12-------|
|-----------------|-----------------|-----------------|-----------------|
|-3-------5-------|-7------10-------|-3-------5-------|-7------10-------|
|-----------------|-----------------|-----------------|-----------------|
Guitar Solo:
|--1719--------1717171515------1719-|-17-------------------171717-------|
|--1920--------1919191717------1920-|-19---19--------------191919---19--|
|-----------------------------------|------19-----------------------19--|
|--------[two-guitar harmony]-------|-----------------------------------|
|-----------------------------------|-----------------------------------|
|-----------------------------------|-----------------------------------|
|
|-----------------------------------|-----------------------------------|
|-----------------------------------|-----------------------------------|
|--9-------------------9------------|--11\-7---------------11--11\-7----|
|------------------9----------------|-----------------------------------|
|--7-------------------7------------|--9-\-5---------------9---9-\-5----|
|------------------7----------------|-----------------------------------|
1 + 2 + 3 + 4 + 1 + 2 + 3 + 4 +

|--15------------------8---7--------|------------------15----------15---|
|--17--17--------------8---7---8----|------------------17----17----17---|
|------17----------------------7----|--9---------------------17---------|
|-----------------------------------|--10-------------------------------|
|-----------------------------------|-----------------------------------|
|-----------------------------------|-----------------------------------|
|
|-----------------------------------|-----------------------------------|
|-----------------------------------|-----------------------------------|
|--9-\-5----------------------------|-(5)--------------9-----5-----9----|
|-----------------------------------|-----------------------------------|
|--7-\-3----------------------------|-(3)--------------7-----3-----7----|
|-----------------------------------|-----------------------------------|
1 + 2 + 3 + 4 + 1 + 2 + 3 + 4 +

|--17----------14--10\-8---7-\-3----|--2---------------17----------17---|
|--19----------15-------------------|------------------19----19----19---|
|------------------11\-9---7-\-4----|--2---------------------19---------|
|-----------------------------------|-----------------------------------|
|-----------------------------------|-----------------------------------|
|-----------------------------------|-----------------------------------|
|
|-----------------------------------|-----------------------------------|
|-----------------------------------|-----------------------------------|
|--11----------7---7----------------|-(7)--------------11----7-----11---|
|-----------------------------------|-----------------------------------|
|--9-----------5---5----------------|-(5)--------------9-----5-----9----|
|-----------------------------------|-----------------------------------|
1 + 2 + 3 + 4 + 1 + 2 + 3 + 4 +
[One guitar] It's
|19----------------------|----------------------------------------------|
|20------17-17-------12--|121512-121512-121512-121512-121512-121512-15fb|
|--------17-17-------14fb|-----14-----14-----14-----14-----14-----14----|
|------------------------|----------------------------------------------|
|------------------------|[32nds... use hammer-on/pull-off combinations]|
|------------------------|----------------------------------------------|
| fb=full bend
|------------------------|----------------------------------------------|
|------------------------|----------------------------------------------|
|12------5--5------------|----------------------------------------------|
|------------------------|----------------------------------------------|
|10------3--3------------|----------------------------------------------|
|------------------------|----------------------------------------------|
1 + 2 + 3 + 4 + 1 + 2 + 3 + 4
it what is it It's it what is it
|-----------------------------------|-----------------------------------|
|-----------------------------------|-----------------------------------|
|-----------------------------------|-----------------------------------|
|--9-------9-------9----------------|--9-------9-------9----------------|
|--7-------7-------7----------------|--7-------7-------7----------------|
|----0-0-0---0-0-0---0-0-0-3-3-2-3--|----0-0-0---0-0-0---0-0-0-3-3-2-3--|
PM___| PM___| PM___| PM___| PM___| PM___|
it what is it It's it what is it
|-----------------------------------|-----------------------------------|
|-----------------------------------|-----------------------------------|
|-----------------------------------|-----------------------------------|
|--9-------9-------9----------------|--9-------9-------9----------------|
|--7-------7-------7----------------|--7-------7-------7----------------|
|----0-0-0---0-0-0---0-0-0-3-3-2-3--|----000-00--000-00--000-00323-2-3--|
PM___| PM___| PM___| PM___| PM___| PM___|
You want it all... yeah yeah yeah
E5 B5 C C D Em D C D C G D Em
|-----|-----|-----------------------|-----------------------------------|
|-----|-----|--------------[two-guitar harmony]-------------------------|
|-----|-----|-----------------------|-----------------------------------|
|-----|-4---|-2---2--4/5-5\4-4\2-2--|--4---2---9-------7-------5--------|
|-2---|-2---|-3---3--5/7-7\5-5\3-3--|--5---3---10------9-------7--------|
|-0---|-----|-----------------------|-----------------------------------|
1... 1... 1 + 2 + 3 + 4 1 + 2 + 3 + 4 +
It's in your face... yeah yeah yeah it's
E5 B5 C C D Em D C D C G D Em
|-----|-----|-----------------------|-----------------------------------|
|-----|-----|--------------[two-guitar harmony]-------------------------|
|-----|-----|-----------------------|-----------------------------------|
|-----|-4---|-2---2--4/5-5\4-4\2-2--|--4---2---9-------7-------5--------|
|-2---|-2---|-3---3--5/7-7\5-5\3-3--|--5---3---10------9-------7--------|
|-0---|-----|-----------------------|-----------------------------------|
1... 1... 1 + 2 + 3 + 4 1 + 2 + 3 + 4 +
it what is it it's it what is it it's
||----------------------------------|-----------------------------------|
||-12-----------------------13\12\10/12-------13\12\10/12---------------| ||.
---------------------------------|------------------------------12\11|
||.9------------------------10\9-\7-/7--------10\9-\7-/7----------------| ||-
---------------------------------|------------------------------10\9-|
||----------------------------------|-----------------------------------|
1 + 2 + 3 + 4 + 1 + 2 + 3 + 4 +
|........................................................................
it what is it it's it what is it it's
|-----------------------------------|-----------------------------(8)--||
|-----------------------------------|-----------------------------(10)-||
|-/12----------9\7/9----------------|-(9)------12------11------9------.||
|-----------------------------------|---------------------------------.||
|-/10----------7\5/7----------------|-(7)------10------9-------7-------||
|-----------------------------------|----------------------------------||
1 + 2 + 3 + 4 + 1 + 2 + 3 + 4 +
............................................repeat 6 times and fade.....|
[play with above repeat 2nd through 6th time without lyrics and fade]
||--7---------------------------8---|---7---------------12----------7-5-|
||--8-----------8---8-----------10--|---8-----------8---8-----------8-7-|
||.-------------9---9---------------|---------------9-------------------|
||.---------------------------------|-----------------------------------|
||------------------------[two-guitar harmony]--------------------------|
||----------------------------------|-----------------------------------|
1 + 2 + 3 + 4 + 1 + 2 + 3 + 4 +
|--7--------------------------------|----------7-------5---------------||
|--8-----------8-7-8----------------|----------8-------7-------8-------||
|--------------9-7-9----------------|--------------------------10-----.||
|-----------------------------------|---------------------------------.||
|-------------------------[two-guitar harmony]-------------------------||
|-----------------------------------|----------------------------------||
1 + 2 + 3 + 4 + 1 + 2 + 3 + 4 +
Note: The original recording contains multiple layers of overdubbed
guitars, as many as six near the end when Jim Martin is improvising over the
harmonized repeat. However, I've compressed this into two guitars to make it
easier to play, while trying to maintain the original sound and feel as much
as possible. Enjoy!
Victor




Ваше мнение



Капча