Edge Of The World
by Faith No More
From the album The Real Thing
(C) 1989 Big Thrilling Music/Vomit God Music (ASCAP)
transcribed by Steve Gorenburg
re-tabbed by Joe White

Q e e e Q e e e 4x Q e e e Q e e e 7x Q e Q e Q e e e Q e e
----||-------------------||-||-------------------||-----------------||----------
12:-||*-----------------*||-||*-----------------*||-----------------||*---------
8-:-||*---3-------------*||-||*---3-------------*||---3-------6-5-3-||*---3-----
----||--5---5-4-3-0-3-4--||-||--5---5-4-3-0-3-4--||-5---5-4-3-------||--5---5---
Intro 1st Verse

e Q e e e 3x Q e e e Q e e e Q e e e Q e e e 3x Q e e e Q e e e Q e
-----------||-----------------||-------------------||-----------------||--------
----------*||-----------------||*---3-------------*||---3-------7-5-3-||*-------
----------*||---3-------------||*-5---5-4-3---3-4-*||-5---5-4-3-------||*---3---
4-3-0-3-4--||-5---5-4-3-0-3-5-||------------5------||-----------------||--5-----

e e Q e e e 3x Q e e e Q e e e Q e e e Q e e e 3x Q e e e e e e e e e
-------------||-----------------||-------------------||---------------------|---
------------*||-----------------||*---3-------------*||---3-------3---6-5-3-|---
------------*||---3-------------||*-5---5-4-3---3-4-*||-5---5-3-5---5-------|---
5-4-3-0-3-4--||-5---5-4-3-0-3-5-||------------5------||---------------------|---

Q e e e Q e e e Q e e e Q e e e Q e e e Q e e e e e e e e e e e e e e e
----------------|-----------------|-----------------|---------------------------
----------------|-----------------|---4-------2-----|-4-----4-----4-----7-5-4---
--4-------2-----|---4-------2-----|-5---7-5-3---5-3-|---7-5---7-5---7-5---------
5---7-5-3---5-3-|-5---7-5-3---5-3-|-----------------|---------------------------
Chorus

Q e e e Q e e e Q e e e s e e s e e e Q e e e Q e e e Q e e e s e e s
|---r-------------|-----------------------|-----------------|-------------------
|---e-------------|-----------5-5---5-----|-----------------|-----------5-5-----
|---s-------------|---3-------------------|---3-------------|---3---------------
|-5-t-5-4-3-0-3-4-|-5---5-4-3-----3---3-4-|-5--5-4-3-0-3-4-|-5---5-4-3-----3---
2nd Verse

e e e Q e e e Q e e e 3x Q e e e Q e e e Q e e e Q e e e 3x e e e e
------||-------------------||-----------------||-------------------||-----------
5-----||*-----------------*||-----------------||*---3-------------*||-----------
------||*---3-------------*||---3-------------||*-5---5-4-3---3-4-*||-5-5-5-5---
--3-4-||--5---5-4-3-0-3-4--||-5---5-4-3-0-3-5-||------------5------||-----------

e e e e e e e e Q e e e Q e e e Q e e e Q e e e Q e e e Q e e e e e e
----------------|-----------------|-----------------|-----------------|---------
----------------|-----------------|-----------------|---4-------2-----|-4-------
5-5-5-5-5-5-5-5-|---4-------2-----|---4-------2-----|-5---7-5-3---5-3-|---7-5---
----------------|-5---7-5-3---5-3-|-5---7-5-3---5-3-|-----------------|---------
Chorus

e e e e e e e e e Q e e e Q e e e Q e e e Q e e e Q e e e Q e e e Q e
------------5-----|---r-------------|-----------------|-----------------|-------
4-----7-5-4---7-5-|---e-------------|-----------------|-----------------|-------
--7-5-------------|---s-------------|---3-------------|---3-------------|---3---
------------------|-5-t-5-4-3-0-3-4-|-5---5-4-3-0-3-4-|-5---5-4-3-0-3-4-|-5-----

e e Q e e e Q e e e Q e e e Q e e e Q e e e Q e e e Q e e e Q e e e Q
------r-p-p-|-p---------------|-----------------|-----------------|-------------
------e-5-6-|-7--------------|-----------------|-----------------|-------------
------s-----|---3-------------|---3-------------|---3-------------|---3---------
5-4-3-t-----|-----5-4-3-0-3-4-|-5---5-4-3-0-3-4-|-5---5-4-3-0-3-4-|-5---5-4-3---

e e e Q e e e Q e e e 8x Q e e e Q e e e Q e e e s e e s e e e Q
------||-------------------||-||------------------|-----------------------|-----
------||*-----------------*||-||*-----------------|-----------5-5---5-----|-----
6-5-3-||*---3-------------*||-||*---3-------------|---3-------------------|-----
------||--5---5-4-3-0-3-4--||-||--5---5-4-3-0-3-4-|-5---5-4-3-----3---3-4-|-5---

e e e Q e e e Q e e e s e e s e e e
---------------|------------------------||
---------------|-----------5-5---5-----*||
-3-------------|---3-------------------*||
--5-4-3-0-3-4-|-5---5-4-3-----3---3-4--||
(repeat and fade)




Ваше мнение



Капча