Hey. This is my first time I've written out a song tab so hope it's all good and understandable.
Let me know if you have any problems or suggestions to improve it, please email
me at [email protected] Thanks

Key:b = bend
/ = Slide up
= Slide down
(#)= Note to bend or slide to
h = Hammer
p = Pull
~ = Wobbley thing
(sorry dont know the correct term. You'll hear it in the song)

E|---------------------------|------------------------|
B|------------------16/(21)--|------------------------|
G|------------13-------------|------------------------|
D|---------------------------|------------------------|
A|--13b(14)------------------|--13b(14)---------------|
e|---------16----------------|---------16---16(1)----|

E|---------------------------------------------------------|
B|-------------18------------------------------------------|
G|----------------17--13-----------------------------------|
D|-----------------------16--15--13--13-h14-p13------------|
A|--13b(14)--------------------------------------14---14~--|
e|---------16----------------------------------------------|

E|---------------------------|------------------------|
B|------------------16/(21)--|------------------------|
G|------------13-------------|------------------------|
D|---------------------------|------------------------|
A|--13b(14)------------------|--13b(14)---------------|
e|---------16----------------|---------16---16(1)----|

E|-------------------------------------------------------------------------|
B|------------18-16-18----------16--13---------------------------16/(18)16-|
G|----------------------15/(17)--------13-h15-p13--------------------------|
D|------------------------------------------------15---15-15-p13-----------|
A|--13b(14)----------------------------------------------------------------|
e|---------16--------------------------------------------------------------|




Ваше мнение



Капча